» » »

Grinspoon, Don't Change Tabs (ver.3)

Artists:  A B C D E F G H I J K L M N O P Q R S T U V W X Y Z # 

Don't Change Tabs (ver.3)

Grinspoon Tabs
 Rating:
4/5 (4 votes)
Don't Change lessons Tabs too difficult? Try these video lessons and learn fast
                e|-5------------------------------5------------------------------
b|--------57------25------02-------------57------25------02------
g|---------------------------------------------------------------
d|--------------------------------7------------------------------
a|--------------------------------7------------------------------
E|--------------------------------5------------------------------


e|-------------------------------------------------------------------------------------------------
b|-------------------------------------------------------------------------------------------------
g|-----------------------------------------------------------------4---4---7---7-------------------
d|-7-----------------------7---6---4-----------------------444444444---4---7---7---7---------------
a|-7-----------------------7---6---4-----------------------444444442---2---5---5---7---------------
E|-5-----------------------5---4---2-----------------------22222222----------------5---------------
                                                          |-- pm --|

e|-------------------------------------------------------------------------------------------------
b|-------------------------------------------------------------------------------------------------
g|-----------------------------------------------------------------44444444777777774444444477777777
d|-7-----------------------7---6---4-----------------------4444444444444444777777774444444477777777
a|-7-----------------------7---6---4-----------------------4444444422222222555555552222222255555555
E|-5-----------------------5---4---2-----------------------22222222--------------------------------
                                                          |-- pm --|

e|-0-5--9--0-5--9--0---------------------------------
b|---------------------------------------------------
g|-------------------44444444777777774444444477777777
d|-------------------44444444777777774444444477777777
a|-------------------22222222555555552222222255555555
E|---------------------------------------------------


e|-5------------------------------
b|--------57------25------02------
g|--------------------------------
d|-7------------------------------
a|-7------------------------------
E|-5------------------------------


e|-------------------------------------------------------------------------------------------------
b|-------------------------------------------------------------------------------------------------
g|-----------------------------------------------------------------4---4---7---7-------------------
d|-7-----------------------7---6---4-----------------------444444444---4---7---7---7---------------
a|-7-----------------------7---6---4-----------------------444444442---2---5---5---7---------------
E|-5-----------------------5---4---2-----------------------22222222----------------5---------------
                                                          |-- pm --|

e|-------------------------------------------------------------------------------------------------
b|-------------------------------------------------------------------------------------------------
g|-----------------------------------------------------------------44444444777777774444444477777777
d|-7-----------------------7---6---4-----------------------4444444444444444777777774444444477777777
a|-7-----------------------7---6---4-----------------------4444444422222222555555552222222255555555
E|-5-----------------------5---4---2-----------------------22222222--------------------------------
                                                          |-- pm --|

e|-0-5--9--0-5--9--0---------------------------------
b|---------------------------------------------------
g|-------------------44444444777777774444444477777777
d|-------------------44444444777777774444444477777777
a|-------------------22222222555555552222222255555555
E|---------------------------------------------------


e|-5------------------------------5------------------------------
b|--------57------25------02-------------57------25------02------
g|---------------------------------------------------------------
d|-7------------------------------7--------------7---------------
a|-7------------------------------7--------------7---------------
E|-5------------------------------5--------------5---------------


e|-------------------------------------------------------------------------------------------------
b|-------------------------------------------------------------------------------------------------
g|-----------------------------------------------------------------4---4---7---7-------------------
d|-7-----------------------7---6---4-----------------------444444444---4---7---7---7---------------
a|-7-----------------------7---6---4-----------------------444444442---2---5---5---7---------------
E|-5-----------------------5---4---2-----------------------22222222----------------5---------------
                                                          |-- pm --|
e|-------------------------------------------------------------------------------------------------
b|-------------------------------------------------------------------------------------------------
g|-----------------------------------------------------------------44444444777777774444444477777777
d|-7-----------------------7---6---4-----------------------4444444444444444777777774444444477777777
a|-7-----------------------7---6---4-----------------------4444444422222222555555552222222255555555
E|-5-----------------------5---4---2-----------------------22222222--------------------------------
                                                          |-- pm --|

e|-0-5--9--0-5--9--0---------------------------------
b|---------------------------------------------------
g|-------------------44444444777777774444444477777777
d|-------------------44444444777777774444444477777777
a|-------------------22222222555555552222222255555555
E|---------------------------------------------------


e|-0-5--9--0-5--9--0---------------------------------
b|---------------------------------------------------
g|-------------------44444444777777774444444477777777
d|-------------------44444444777777774444444477777777
a|-------------------22222222555555552222222255555555
E|---------------------------------------------------


e|-5------------------------------
b|--------57------25------02------
g|--------------------------------
d|-7------------------------------
a|-7------------------------------
E|-5------------------------------


e|-------------------------------------------------------------------------------------------------
b|-------------------------------------------------------------------------------------------------
g|-111111111111111111111111111111119-9-9-9-9-9-9-9-9-9-9-9-9-9-9-9-6-6-6-7---------6-6-6-7---------
d|-111111111111111111111111111111119-9-9-9-9-9-9-9-9-9-9-9-9-9-9-9-6-6-6-7---------6-6-6-7---------
a|-9-9-9-9-9-9-9-9-9-9-9-9-9-9-9-9-7-7-7-7-7-7-7-7-7-7-7-7-7-7-7-7-4-4-4-5---------4-4-4-5---------
E|-------------------------------------------------------------------------------------------------


e|---------------------------------------------------------------------------------
b|---------------------------------------------------------------------------------
g|-111111111111111111111111111111119-9-9-9-9-9-9-9-9-9-9-9-9-9-9-9-6-6-6-7---------
d|-111111111111111111111111111111119-9-9-9-9-9-9-9-9-9-9-9-9-9-9-9-6-6-6-7---------
a|-9-9-9-9-9-9-9-9-9-9-9-9-9-9-9-9-7-7-7-7-7-7-7-7-7-7-7-7-7-7-7-7-4-4-4-5---------
E|---------------------------------------------------------------------------------


e|---------------------------------------------------------
b|---------------------------------------------------------
g|6-6-6-7---------6-6-6-7---------6-6-6-7------------------
d|6-6-6-7---------6-6-6-7---------6-6-6-7---------7--------
a|4-4-4-5---------4-4-4-5---------4-4-4-5---------7--------
E|------------------------------------------------5--------
            
Submit corrections

comments powered by Disqus
↑ Back to top | Grinspoon Tabs for Don't Change. Lyrics for acoustic guitar and electric guitar. Tablatures and chords are parodies/interpretations of the original songs. You may use it for private study, scholarship, research or language learning purposes only