» » »

Don Change Tabs (ver.1)

Artists:  A B C D E F G H I J K L M N O P Q R S T U V W X Y Z # 

Don Change Tabs (ver.1)

Grinspoon
Rating:
0/5 (0 votes)

Hard to play? Try these video lessons and learn fast.
                Grinspoon - Don't Change

Standard Tuning (EADGBE)

I couldn't find a tab anywhere for this song so i thought
i'd do it myself...enjoy

h = hold note
~ = vibrato
/ = slide to next note
///// = pickslide down
...pm... = palm muting
xxxxxxx  = Strumming (listen to song for timing)

          Intro......play X 2      w/distortion + echo
E------------------------------------------------------------- \
B--10~~~~~~~~~~5/7~~~~~~~~~~2/5~~~~~~~~~~---------------------  |
G----------------------------------------4/6~~~~~~~~~---------  |
D-------------------------------------------------------------  |Play X 2
A-------------------------------------------------------------  |
E------------------------------------------------------------- /
                         Guitar 2 (play 2nd time)
E-------------------------------------------------------------
B-------------------------------------------------------------
G-------------------------------------------------------------
D--7----------------------------------------------------------
A--7----------------------------------------------------------
E--5----------------------------------------------------------


                           Verse                                 
E-------------------------------------------------------------    
B-------------------------------------------------------------    
G-------------------------------------------------------------    
D------------7h--------------------7--6--4h-------------------    
A------------7h--------------------7--6--4h-------------------    
E-///////////5h--------------------5--4--2h-------------------    
            "I'm standin here..."         "The Sky above..."      
								  
								 
E-------------------------------------------------------------    
B-------------------------------------------------------------    
G-------------------------4xxxxxx7xxxxxx----------------------    
D----------------4xxxxxxxx4xxxxxx7xxxxxx7h--------------------    
A----------------4xxxxxxxx2xxxxxx5xxxxxx7h--------------------   
E----------------2xxxxxxxx--------------5h-------////////////-   
"won't fall down"...pm....                                       

E-------------------------------------------------------------    
B-------------------------------------------------------------    
G-------------------------------------------------------------    
D------------7h--------------------7--6--4h-------------------    
A------------7h--------------------7--6--4h-------------------    
E-///////////5h--------------------5--4--2h-------------------     
            "Resolution of happiness"    "Things have been dark." 
		
			   Chorus			  							  |
E-------------------------------------------------------------    
B-------------------------------------------------------------    
G--------------------------4xxxx7xxxx4xxxx7xxxx---------------
D---------------4xxxxxxxxxx4xxxx7xxxx4xxxx7xxxx7h-------------
A---------------4xxxxxxxxxx2xxxx5xxxx2xxxx5xxxx7h-------------
E---------------2xxxxxxxxxx--------------------5h-------------
                ....pm.....
                      Guitar 2 
E-----------------9~~~~~~~~----------------------9--0---9--0--
B---------------10-----------------------------10-----10------
G-------------------------------------------------------------
D-------------------------------------------------------------
A-------------------------------------------------------------
E-------------------------------------------------------------
"For too long.."           "Don't change for you..."


E-------------------------------------------------------------
B-------------------------------------------------------------
G-4xxxxxxxxxx7xxxxxxxxxxx4xxxxxxxxxx7xxxxxxxxxxx7h------------
D-4xxxxxxxxxx7xxxxxxxxxxx4xxxxxxxxxx7xxxxxxxxxxx7h------------
A-2xxxxxxxxxx5xxxxxxxxxxx2xxxxxxxxxx5xxxxxxxxxxx5h------------
E-------------------------------------------------------------
"Don't change for you.....Don't change a thing....for me

Intro
Verse
Chorus
Intro X 2
Verse
Chorus X 2
Intro
Bridge
                        Bridge
E-------------------------------------------------------------
B-------------------------------------------------------------
G-11xxxxxxxx9xxxxxxxx6xx7xxx6xx7xxxx--------------------------
D-11xxxxxxxx9xxxxxxxx6xx7xxx6xx7xxxx--------------------------
A-9xxxxxxxxx7xxxxxxxx4xx5xxx4xx5xxxx--------------------------
E-------------------------------------------------------------
"Dooooon't Chaaaange"

E-------------------------------------------------------------
B-------------------------------------------------------------
G-11xxxxxxxx9xxxxxxxx6xx7xxxx6xx7xxxx6xx7xxxx6xx7xxxx---------
D-11xxxxxxxx9xxxxxxxx6xx7xxxx6xx7xxxx6xx7xxxx6xx7xxxx7h-------
A-9xxxxxxxxx7xxxxxxxx4xx5xxxx4xx5xxxx6xx5xxxx4xx5xxxx7h-------
E----------------------------------------------------5h-(ring out)
"Dooooon't Chaaaange"




Lyrics

I'm standing here on the ground
The sky above won't fall down
See no evil in all direction
Resolution of happiness
Things have been dark
For too long

Don't change for you
Don't change a thing for me

I found a love I had lost
It was gone for too long
Hear no evil in all directions
Execution of bitterness
Message received loud and clear

Don't change for you
Don't change a thing for me

I'm standing here on the ground
The sky above won't fall down
See no evil in all directions
Resolution of happiness
Things have been dark for too long

Don't change for you
Don't change a thing for me
            
Hard to play? Try these video lessons and learn fast. | Correct




comments powered by Disqus
↑ Back to top | Tablatures and chords are parodies/interpretations of the original songs. You may use it for private study, scholarship, research or language learning purposes only