» » »

Dc X Tabs (ver.2)

Artists:  A B C D E F G H I J K L M N O P Q R S T U V W X Y Z # 

Dc X Tabs (ver.2)

Grinspoon
Rating:
0/5 (0 votes)

Hard to play? Try these video lessons and learn fast.
                "(1)
DCX3
As recorded by Grinspoon
Words and Music by Philip Jamieson and Pat Davern
Track Number: 3
Track Length: 2:55

Drop D Tuning (low to high: D A D G B E)

Intro

 (play 2 times)
|------------------|
|------------------|
|------------------|
|--3-3-3----5-5-5--|
|--3-3-3----5-5-5--|
|--3-3-3----5-5-5--|

 (play 4 times)
|--------------------------------------------|
|--------------------------------------------|
|--------------------------------------------|
|--------------------------------------------|
|--------------------------------------------|
|--3p0-0-5p0-0-6p0-0-5-/12-12-12-12-12-12-0--|

Verses

Chorus

 (play 2 times)
|------------------|
|------------------|
|------------------|
|--3-3-3----5-5-5--|
|--3-3-3----5-5-5--|
|--3-3-3----5-5-5--|

Interlude

 (play 4 times)
|-----------------------------|------------------------------|
|-----------------------------|------------------------------|
|-----------------------------|------------------------------|
|-----------------------------|------------------------------|
|--------------------------3--|------------------------------|
|--3p0-0-5p0-0-6p0-0-5p0-0-3--|--3p0-0-5p0-0-6p0-0-5p0-0-3b--|

 (play 4 times)
|-----------------------------------|
|-----------------------------------|
|-----------------------------------|
|-----------------------------------|
|-----------------------------------|
|--3p0-0-5p0-0-6p0-0-5p0-0-3p0-3p0--|

|------------------------------------------------------|
|--3-3-3-3-3-3--4-4-4-4-4-4--5-5-5-5-5-5--6-6-6-6-6-6--|
|--2-2-2-2-2-2--3-3-3-3-3-3--4-4-4-4-4-4--5-5-5-5-5-5--|
|--0-0-0-0-0-0--0-0-0-0-0-0--0-0-0-0-0-0--0-0-0-0-0-0--|
|------------------------------------------------------|
|------------------------------------------------------|

|-----------------------------------------------|
|--7----8----9----10---11/12/13/14/15/16/17/18--|
|--6----7----8----9----10/11/12/13/14/15/16/17--|
|--0----9----0----0-----------------------------|
|-----------------------------------------------|
|-----------------------------------------------|

|------------------------------|
|------------------------------|
|------------------------------|
|--18-18/19-19/20-20/21-21/22--|
|--16-16/17-17/18-18/19-19/20--|
|------------------------------|

Solo

|--8---8---8-------------------|
|--9b--9b--9b---13b--13b--13b--|
|------------------------------|
|------------------------------|
|------------------------------|
|------------------------------|

|--13b---15--13p10-------------------------------------------|
|-----------------13-10--13h15--15p13p10--13p10----12-12-10--|
|---------------------------------------12------12-12-12-10--|
|------------------------------------------------------------|
|------------------------------------------------------------|
|------------------------------------------------------------|

|--------------------8---8---8--------------------|
|---------10---------9b--9b--9b---13b--13b--13b\--|
|--12b-14-10--------------------------------------|
|------------12-----------------------------------|
|-------------------------------------------------|
|-------------------------------------------------|
"            
Hard to play? Try these video lessons and learn fast. | Correct




comments powered by Disqus
↑ Back to top | Tablatures and chords are parodies/interpretations of the original songs. You may use it for private study, scholarship, research or language learning purposes only