» » »

Damn Straight Tabs (ver.2)

Artists:  A B C D E F G H I J K L M N O P Q R S T U V W X Y Z # 

Damn Straight Tabs (ver.2)

Grinspoon
Rating:
0/5 (0 votes)

Hard to play? Try these video lessons and learn fast.
                e|----------------------------------------------------------------------------
B|----------------------------------------------------------------------------
G|----------------------------------------------------------------------------
D|3-2-1-0-----3-2-1-0------------------------------3-2-1-0--------------------
A|3-2-1-0-----3-2-1-0------5-3-5-3-0--5-3-0-5-3-0--3-2-1-0--------------------
D|3-2-1-0-----3-2-1-0------------------------------3-2-1-0--------------------
intro

e|----------------------------------------------------------------------------
B|----------------------------------------------------------------------------
G|----------------------------------------------------------------------------
D|-12-0-3-6-------------------12-10--6-3--------------------------------------
A|-12-0-3-6-------------------12-10--6-3--------------------------------------
D|-12-0-3-6-------------------12-10--6-3--------------------------------------
verse p.m          on the last time before the chorus

e|----------------------------------------------------------------------------
B|----------------------------------------------------------------------------
G|----------------5-----------------------------------------------------------
D|5-5-xx--3-3-x---5---------------------------3-2-1-0-------------------------
A|5-5-xx--3-3-x---3----5-3-5-3-0-5-3-0-5-3-0--3-2-1-0-------------------------
D|5-5-xx--3-3-x------0------------------------3-2-1-0-------------------------
  chorus

e|----------------------------------------------------------------------------
B|----------------------------------------------------------------------------
G|----------------------------------------------------------------------------
D|--------------------------3-2-1-0-------------------------------------------
A|---5-3-5-3-0-5-3-0-5-3-0--3-2-1-0-------------------------------------------
D|-0------------------------3-2-1-0-------------------------------------------


e----------------------------------------------------------------------------
B|----------------------------------------------------------------------------
G|------5\7---7/5-------------------------------------------------------------
D|-0-xx-5\7-xx7/5-xx--2h3-2-0-------------------------------------------------
A|-0-xx-3\5-xx5/3-xx--2h3-2-0-------------------------------------------------
D|-0-xx-----xx----xx--2h3-2-0-------------------------------------------------
  after the 2nd chorus
            
Hard to play? Try these video lessons and learn fast. | Correct




comments powered by Disqus
↑ Back to top | Tablatures and chords are parodies/interpretations of the original songs. You may use it for private study, scholarship, research or language learning purposes only