» » »

Choke Tabs (ver.1)

Artists:  A B C D E F G H I J K L M N O P Q R S T U V W X Y Z # 

Choke Tabs (ver.1)

Grinspoon
Rating:
2/5 (2 votes)

Hard to play? Try these video lessons and learn fast.
                -------------------------------------------------------------------------------
-------------------------------------------------------------------------------

This is my first time i've done this but i'm pretty sure that it's 100% correct.
It's an easy song but it sounds good when you play it right.

Tuning: Drop D
    
  Intro: x4                          
e|---------------------------------------------------------------------------|
B|---------------------------------------------------------------------------|
G|-----------2---2------------2---2/4-----------2---2------------2---2-------|
D|---------4---4---4--------4---4-------------4---4---4--------4---4---4-----|
A|-----2-2-------------------------------------------------------------------|
E|-----------------------3-3---------------2-2---------------0-0-------------|
  
  Chorus: x2
e|---------------------------------------------------------------------------|
B|----------------------------------------------------------------5---5-5-5--|
G|----------------------------------------------------------------5---5-5-5--|
D|----3-3-3-3-3-3-3-3--5-5-5-5-5-5-5-5--7-7-7-7-7-7-7-7--x--x--x--3---3-3-3--|
A|----3-3-3-3-3-3-3-3--5-5-5-5-5-5-5-5--7-7-7-7-7-7-7-7--x--x--x-------------|
E|----3-3-3-3-3-3-3-3--5-5-5-5-5-5-5-5--7-7-7-7-7-7-7-7--x--x--x-------------|

  Verse: x4
e|---------------------------------------------------------------------------|
B|---------------------------------------------------------------------------|
G|-----------2---2------------2---2/4------------2---2-----------2---2-------|
D|---------4---4---4--------4---4--------------4---4--4--------4---4---4-----|
A|-----2-2-------------------------------------------------------------------|
E|-----------------------3-3---------------2-2-------------0-0---------------|

  Chorus: x2
e|---------------------------------------------------------------------------|
B|----------------------------------------------------------------5---5-5-5--|
G|----------------------------------------------------------------5---5-5-5--|
D|----3-3-3-3-3-3-3-3--5-5-5-5-5-5-5-5--7-7-7-7-7-7-7-7--x--x--x--3---3-3-3--|
A|----3-3-3-3-3-3-3-3--5-5-5-5-5-5-5-5--7-7-7-7-7-7-7-7--x--x--x-------------|
E|----3-3-3-3-3-3-3-3--5-5-5-5-5-5-5-5--7-7-7-7-7-7-7-7--x--x--x-------------|

  Bridge: x2
e|---------------------------------------------------------------------------|
B|-------------------------------------------------------2-2-2-2-2-2-2-2-----|
G|-------------------------------------------------------2-2-2-2-2-2-2-2-----|
D|----6-6-6-6-6-6-6-6--4-4-4-4-4-4-4-4-------------------0-0-0-0-0-0-0-0-----|
A|----6-6-6-6-6-6-6-6--4-4-4-4-4-4-4-4--0-0-0-0-0-0-0-0----------------------|
E|----4-4-4-4-4-4-4-4--2-2-2-2-2-2-2-2--0-0-0-0-0-0-0-0----------------------|

  Verse: x4
e|---------------------------------------------------------------------------|
B|---------------------------------------------------------------------------|
G|-----------2---2------------2---2/4---------2---2------------2---2---------|
D|---------4---4---4--------4---4-----------4---2---4--------4---4---4-------|
A|-----2-2-------------------------------------------------------------------|
E|----------------------3-3--------------2-2-------------0-0-----------------|
 
  Chorus: x2
e|---------------------------------------------------------------------------|
B|----------------------------------------------------------------5----------|
G|----------------------------------------------------------------5----------|
D|----3-3-3-3-3-3-3-3--5-5-5-5-5-5-5-5--7-7-7-7-7-7-7-7--x--x--x--3----------|
A|----3-3-3-3-3-3-3-3--5-5-5-5-5-5-5-5--7-7-7-7-7-7-7-7--x--x--x-------------|
E|----3-3-3-3-3-3-3-3--5-5-5-5-5-5-5-5--7-7-7-7-7-7-7-7--x--x--x-------------|

e|---------------------------------------------------------------------------|
B|---------------------------------------------------------------------------|
G|---------------------------------------------------------------------------|
D|---------------------------------------------------------------------------|
A|---------------------------------------------------------------------------|
E|---------------------------------------------------------------------------|


| /  slide up
| \  slide down
| h  hammer-on
| p  pull-off
| ~  vibrato
| +  harmonic
| x  Mute note
===============================================================================
            
Hard to play? Try these video lessons and learn fast. | Correct




comments powered by Disqus
↑ Back to top | Tablatures and chords are parodies/interpretations of the original songs. You may use it for private study, scholarship, research or language learning purposes only