» » »

Grinspoon, Chemical Heart Tabs (ver.4)

Artists:  A B C D E F G H I J K L M N O P Q R S T U V W X Y Z # 

Chemical Heart Tabs (ver.4)

Grinspoon Tabs
Rating:
3/5 (6 votes)
Chemical Heart lessons Tabs too difficult? Try these video lessons and learn fast
                (Intro)
e|---------10----------------10---------------10-----------------------------|
B|---------------10---------------10-----------------10----------------------|
G|----7----------------------------------7-----------------------------------|
D|---------------------------------------------------------------------------|
A|---------------------------------------------------------------------------|
E|---------------------------------------------------------------------------|

e|------------8---------7----------------7-----------------------------------|
B|----------------8-----------8----------------------------------------------|
G|----5-----------------------------5---------8------------------------------|
D|---------------------------------------------------------------------------|
A|---------------------------------------------------------------------------|
E|---------------------------------------------------------------------------|
            

comments powered by Disqus
↑ Back to top | Grinspoon Tabs for Chemical Heart. Lyrics for acoustic guitar and electric guitar. Tablatures and chords are parodies/interpretations of the original songs. You may use it for private study, scholarship, research or language learning purposes only