» » »

Business Pleasure Tabs (ver.1)

Artists:  A B C D E F G H I J K L M N O P Q R S T U V W X Y Z # 

Business Pleasure Tabs (ver.1)

Grinspoon
Rating:
5/5 (1 vote)

Hard to play? Try these video lessons and learn fast.
                This is my favorite song off the new album... couldn't find it online so thought
i'd help someone out....


Intro:

Rhythm Guitar:
e|---------------------------------------------------------------------------------|
B|---------------------------------------------------------------------------------|
G|---------------------------------------------------------------------------------|
D|--2-2-2-2-2-2-2-2--10-10-10-10-10-10-10-10--7-7-7-7-7-7-7-7--9-9--7-7--5-5--4-4--|
A|--2-2-2-2-2-2-2-2--10-10-10-10-10-10-10-10--7-7-7-7-7-7-7-7--9-9--7-7--5-5--4-4--|
E|--0-0-0-0-0-0-0-0---8--8--8--8--8--8--8--8--5-5-5-5-5-5-5-5--7-7--5-5--3-3--2-2--|
 x 4

Lead Guitar: comes in on the second time through the rhythm riff.
e|--12------12------12------12------12-------12-------12------12--|
B|------12------12------12------12------12-------12-------12------|
G|----------------------------------------------------------------|
D|----------------------------------------------------------------| x 3
A|----------------------------------------------------------------|
E|----------------------------------------------------------------|

Verse:

Bass plays the riff x 2 (no Guitar)

guitar comes in and plays:

e|---------------------------------------------------------------------------------|
B|---------------------------------------------------------------------------------|
G|---------------------------------------------------------------------------------|
D|--2-2-2-2-2-2-2-2--10-10-10-10-10-10-10-10--7-7-7-7-7-7-7-7--9-9--7-7--5-5--4-4--|
A|--2-2-2-2-2-2-2-2--10-10-10-10-10-10-10-10--7-7-7-7-7-7-7-7--9-9--7-7--5-5--4-4--|
E|--0-0-0-0-0-0-0-0---8--8--8--8--8--8--8--8--5-5-5-5-5-5-5-5--7-7--5-5--3-3--2-2--|
 x 1

e|----------------------------------------------------------------------------------------------|
B|----------------------------------------------------------------------------------------------|
G|----------------------------------------------------------------------------------------------|
D|--2-2-2-2-2-2-2-2--10-10-10-10-10-10-10-10--7-7-7-7-7-7-7-7--9-9-9-9-9-9-9-9-9-9-9-9-9-9-9-9--|
A|--2-2-2-2-2-2-2-2--10-10-10-10-10-10-10-10--7-7-7-7-7-7-7-7--9-9-9-9-9-9-9-9-9-9-9-9-9-9-9-9--|
E|--0-0-0-0-0-0-0-0---8--8--8--8--8--8--8--8--5-5-5-5-5-5-5-5--7-7-7-7-7-7-7-7-7-7-7-7-7-7-7-7--|
 x 1

Chorus:

Rhythm Guitar:
e|----------------------------------------------------------------------------------------------|
B|----------------------------------------------------------------------------------------------|
G|----------------------------------------------------------------------------------------------|
D|--10-10-10-10-10-10-10-10--12-12-12-12-12-12-12-12--14-14-14-14-14-14-14-14-14-14-14-14-14-14-|
A|--10-10-10-10-10-10-10-10--12-12-12-12-12-12-12-12--14-14-14-14-14-14-14-14-14-14-14-14-14-14-|
E|---8--8--8--8--8--8--8--8--10-10-10-10-10-10-10-10--12-12-12-12-12-12-12-12-12-12-12-12-12-12-|
 x 2


e|-------------------------------------------------------------------------------------|
B|-------------------------------------------------------------------------------------|
G|-------------------------------------------------------------------------------------|
D|--10-10-10-10-10-10-10-10--12-12-12-12-12-12-12-12--7-7-7-7-7-7-7-7-7-7-7-7-7-7-7-7--|
A|--10-10-10-10-10-10-10-10--12-12-12-12-12-12-12-12--7-7-7-7-7-7-7-7-7-7-7-7-7-7-7-7--|
E|---8--8--8--8--8--8--8--8--10-10-10-10-10-10-10-10--5-5-5-5-5-5-5-5-5-5-5-5-5-5-5-5--|
 x 1

e|----------------------------------------------------------------------------------------------|
B|----------------------------------------------------------------------------------------------|
G|----------------------------------------------------------------------------------------------|
D|--10-10-10-10-10-10-10-10--12-12-12-12-12-12-12-12--14-14-14-14-14-14-14-14-14-14-14-14-14-14-|
A|--10-10-10-10-10-10-10-10--12-12-12-12-12-12-12-12--14-14-14-14-14-14-14-14-14-14-14-14-14-14-|
E|---8--8--8--8--8--8--8--8--10-10-10-10-10-10-10-10--12-12-12-12-12-12-12-12-12-12-12-12-12-12-|
 x 1


Lead Guitar:
e|--15------15-------14------14-------12------12------12------12------|
B|------15------15-------15------15-------12------12------12------12--|
G|--------------------------------------------------------------------|
D|--------------------------------------------------------------------| x 4
A|--------------------------------------------------------------------|
E|--------------------------------------------------------------------|


and thats about all there is to it... listen to the song for the arrangement.

Please send me feedback or different ideas 
            
Hard to play? Try these video lessons and learn fast. | Correct




comments powered by Disqus
↑ Back to top | Tablatures and chords are parodies/interpretations of the original songs. You may use it for private study, scholarship, research or language learning purposes only