» » »

Grinspoon, Angel In The Sand Bass tabs (ver.1)

Artists:  A B C D E F G H I J K L M N O P Q R S T U V W X Y Z # 

Angel In The Sand Bass tabs (ver.1)

Grinspoon Tabs
 Rating:
4/5 (4 votes)
Angel In The Sand lessons Tabs too difficult? Try these video lessons and learn fast
                Grinspoon – Angel In The Sand BASS TAB (DROP D!)

No Bass at start

6.00
G|-----------------------------------------------------------|
D|-----------------------------------------------------------|
A|-------------------------------------------7-6-5-7---------|
E|-77777777-10-9-7-10-9-7-9-1010101010101010---------10-9-10-|

G|---------------------------------------------------------|
D|---------------------------------------------------------|
A|-------------------------------------------7-6-5-5-7-5-7-|
E|-77777777-10-9-7-10-9-7-9-1010101010101010---------------| x3

44.00
G|-----------------------------------|
D|-----------------------------------|
A|-----------------------------5h7p5-|
E|-7-77-0h7-77-7/5-55-5p0-00-0-------|

50.00
G|---------------------------------------|
D|---------------------------------------|
A|---------------------------------------|
E|-7-77-0h7-77-7/5-55-5p0-0-000-00000000-|

58.00
G|----------------------------------------|
D|----------------------------------------|
A|----------------------------------------|
E|-7-7-7-7h9/5-5-7-7/9-3-33-333-0-00-00-5-| x4

1:24.00
G|-----------------------------------------------------------|
D|-----------------------------------------------------------|
A|-------------------------------------------7-6-5-7---------|
E|-77777777-10-9-7-10-9-7-9-1010101010101010---------10-9-10-|

G|---------------------------------------------------------|
D|---------------------------------------------------------|
A|-------------------------------------------7-6-5-5-7-5-7-|
E|-77777777-10-9-7-10-9-7-9-1010101010101010---------------| x3

2.01.00
G|-----------------------------------|
D|-----------------------------------|
A|-----------------------------5h7p5-|
E|-7-77-0h7-77-7/5-55-5p0-00-0-------|

2.08.00
G|---------------------------------------|
D|---------------------------------------|
A|---------------------------------------|
E|-7-77-0h7-77-7/5-55-5p0-0-000-00000000-|

2.16.00
G|----------------------------------------|
D|----------------------------------------|
A|----------------------------------------|
E|-7-7-7-7h9/5-5-7-7/9-3-33-333-0-00-00-5-| x3

2.35.00
G|-----------------------------------------------|
D|-----------------------------------------------|
A|-----------------------------------------------|
E|-7-7-7-7h9/5-5/7-7h9-3-33-333-0-00-00-00000000-|

2.43.00
G|---------|
D|---------|
A|---------|
E|-7---5-0-| x2

2.55.00
G|--------------------------------------|
D|--------------------------------------|
A|---------------------------------7757-|
E|-7-7-77-0h7-7-7777-5-5-55-5p0-00------| x3

G|--------------------------------------------|
D|--------------------------------------------|
A|--------------------------------------------|
E|-7-7-77-0h7-7-7777-5-5-55-5p0-00-000-000000-|

3.22.00
G|----------------------------------------|
D|----------------------------------------|
A|----------------------------------------|
E|-7-7-7-7h9/5-5-7-7/9-3-33-333-0-00-00-5-| x3

3.41.00
G|------------------------------|
D|------------------------------|
A|------------------------------|
E|-7-7-7-7h9/5-7-7/9-3-33-333-0-|
            
Submit corrections

comments powered by Disqus
↑ Back to top | Grinspoon Bass for Angel In The Sand. Lyrics for acoustic guitar and electric guitar. Tablatures and chords are parodies/interpretations of the original songs. You may use it for private study, scholarship, research or language learning purposes only