» » »

Grinspoon, All Good Bass tabs (ver.1)

Artists:  A B C D E F G H I J K L M N O P Q R S T U V W X Y Z # 

All Good Bass tabs (ver.1)

Grinspoon Tabs
Rating:
0/5 (0 votes)
Hard to play? Try these video lessons and learn fast.
                Single: lost control

Notes:
Drop D tuning (d,A,D,G) 
 let note ring 
The intro, just play each note while sliding down the kneck 
of the bass.

Intro
G|----------------------------------------------------------
D|----------------------------------------------------------
A|----------------------------------------------------------
d|-7\5\4\3\2\1\0--------------------------------------------

Verse
G|----------------------------------------------------------
D|----------------------------------------------------------
A|----------------------------------------------------------
d|-5-7--0-3-0--0-3-0-3-0------------------------------------
   
Chorus
G|------0-3--0-3-0--3-3-0-3-0-3-5--5-5-0-3-0-3-0--5-5-------
D|----------------------------------------------------------
A|----------------------------------------------------------
d|-0-0-------------------------------------------------0~---

Chorus fill 

G|--0-3-0---------------------------------------------------
D|----------------------------------------------------------
A|----------------------------------------------------------
d|----------------------------------------------------------


Bridge 
G|----------------------------------------------------------
D|----------------------------------------------------------
A|----------------------3/5-555-----------------------------
d|-5-7-5-3-5-3-0--0-3-0-------------------------------------

Bridge A
G|---------------------------------------------------------- 
D|----------------------------------------------------------
A|----------------------------------------------------------
d|-0000000000000000-3333333333333333-5555555555555555-5-5-0~


Intro       x1
Verse       x8 
Chorus      x1
Verse       x8 
Chorus      x1
Chorus fill x1
Chorus      x1
Rest
Intro       x1
Bridge      x2
rest 
BridgeA     x1
Chorus fill x1
Chorus      x1
Chorus fil lx1
Chorus      x1
            

comments powered by Disqus
↑ Back to top | Grinspoon Bass for All Good. Lyrics for acoustic guitar and electric guitar. Tablatures and chords are parodies/interpretations of the original songs. You may use it for private study, scholarship, research or language learning purposes only