» » »

Grima Mike, Words Can T Explain Tabs (ver.1)

Artists:  A B C D E F G H I J K L M N O P Q R S T U V W X Y Z # 

Words Can T Explain Tabs (ver.1)

Grima Mike Tabs
Rating:
0/5 (0 votes)
Words Can T Explain lessons Tabs too difficult? Try these video lessons and learn fast
                E|-2---2-2--2---2-2--2-2--2-2---2---2-2--2---2-2--2-2--2-2-|
B|-2---2-2--2---2-2--2-2--2-2---2---2-2--2---2-2--2-2--2-2-|
G|-2---2-2--2---2-2--2-2--2-2---2---2-2--2---2-2--2-2--2-2-|
D|-X---X-X--X---X-X--X-X--X-X---X---X-2--2---2-2--2-2--2-2-|
A|---------------------------------------------------------|
E|---------------------------------------------------------|
	She gives me this feeling

E|-3---3-3--3---3-3--3-3--3-3---3---3-3--3---3-3--3-3--3-3-|
B|-3---3-3--3---3-3--3-3--3-3---3---3-3--3---3-3--3-3--3-3-|
G|-3---3-3--3---3-3--3-3--3-3---3---3-3--3---3-3--3-3--3-3-|
D|-0---0-0--0---0-0--0-0--0-0---0---0-0--0---0-0--0-0--0-0-|
A|---------------------------------------------------------|
E|---------------------------------------------------------|
	that I've never felt before
 
(same pattern for each of the following lines)
	I think it might be love but it might be something more
	When she's around I feel open, I feel free
	I feel her eyes creeping up on me
	This crazy sensation is driving me insane
	It cools me, it soothes me like standing in the rain
	I want her to know but I don't know where to start
	All these emotions built up in my heart

CHORUS

	She makes me worry about things she'll do
	And she makes me take precautions too
	E|-0----------0-----------0---------3-
	B|-0h1--------0-----------0h1-------0-
	G|-2----------0-----------0---------0-
	D|-2----------2-----------2---------0-
	A|-0----------2-----------3---------2-
	E|-0----------0-----------0---------3-

	I couldn't forgive myself if she ever felt pain

	E|-0----------0-----------1---------3-
	B|-0h1--------0-----------1---------0-
	G|-2----------0-----------2---------0-
	D|-2----------2-----------3---------0-
	A|-0----------2-----------0---------2-
	E|-0----------0-----------0---------3-

	And that's how I describe this feeling...
						Words can't explain

	E|-0----------0-----------0---------3-
	B|-0h1--------0-----------0h1-------0-
	G|-2----------0-----------0---------0-
	D|-2----------2-----------2---------0-
	A|-0----------2-----------3---------2-
	E|-0----------0-----------0---------3-

	
Verse 2

E|-2---2-2--2---2-2--2-2--2-2---2---2-2--2---2-2--2-2--2-2-|
B|-2---2-2--2---2-2--2-2--2-2---2---2-2--2---2-2--2-2--2-2-|
G|-2---2-2--2---2-2--2-2--2-2---2---2-2--2---2-2--2-2--2-2-|
D|-X---X-X--X---X-X--X-X--X-X---X---X-2--2---2-2--2-2--2-2-|
A|---------------------------------------------------------|
E|---------------------------------------------------------|

E|-3---3-3--3---3-3--3-3--3-3---3---3-3--3---3-3--3-3--3-3-|
B|-3---3-3--3---3-3--3-3--3-3---3---3-3--3---3-3--3-3--3-3-|
G|-3---3-3--3---3-3--3-3--3-3---3---3-3--3---3-3--3-3--3-3-|
D|-0---0-0--0---0-0--0-0--0-0---0---0-0--0---0-0--0-0--0-0-|
A|---------------------------------------------------------|
E|---------------------------------------------------------|

	I hold her close and listen to her breath
	I watch her sleep and pray she'll never leave
	Across the table I gaze into her eyes
	Such mindless games, I'd never compromise
	To change this love, to change this day
	Simply three words I'd rather say


CHORUS
	She makes me worry about things she'll do
	And I know she takes precautions too
	I'll shield her from any bad weather
	And down the road of life we can face things together

	All of this thinking makes me go insane
	And that's how I describe this feeling...
	Words can't explain.
            

comments powered by Disqus
↑ Back to top | Grima Mike Tabs for Words Can T Explain. Lyrics for acoustic guitar and electric guitar. Tablatures and chords are parodies/interpretations of the original songs. You may use it for private study, scholarship, research or language learning purposes only