» » »

When I Hit Tabs (ver.1)

Artists:  A B C D E F G H I J K L M N O P Q R S T U V W X Y Z # 

When I Hit Tabs (ver.1)

Grima Mike
Rating:
0/5 (0 votes)

Hard to play? Try these video lessons and learn fast.
                A|------------------------------------|
B|------------------------------------|
G|-2---X--2-------------------32------|
D|-2---X--2-5---X--5-4---4--X---32----|
A|-0---X--0-5---X--5-4---4--X-----32~-|
E|----------3---X--3-2---2--X---------|
  Doesn't he tired from all of his failing
A|------------------------------------|
B|------------------------------------|
G|-2---X--2---------------------------|
D|-2---X--2-5---X--5-4---4--X---23-2--|
A|-0---X--0-5---X--5-4---4--X-23----32|
E|----------3---X--3-2---2--X---------|
  This unending road from which he's upon

A|------------------------------------|
B|------------------------------------|
G|-2---X--2-------------------32------|
D|-2---X--2-5---X--5-4---4--X---32----|
A|-0---X--0-5---X--5-4---4--X-----32~-|
E|----------3---X--3-2---2--X---------|
  And as he falls down with all his limbs flailing

A|------------------------------------|
B|------------------------------------|
G|-2---X--2---------------------------|
D|-2---X--2-5---X--5-4---4--X---23-2--|
A|-0---X--0-5---X--5-4---4--X-23----32|
E|----------3---X--3-2---2--X---------|
  A perfectly good future is gone

A|-----------------------------------------------------------||
B|-----------------------------------------------------------||
G|-----------------------------------------------------------||
D|-----2--2-2-2---2-2-2--2-2-2-----3p2-2-2-2---2-2-----2-2-2-||
A|-0---------------------------------------------------------||
E|--------------3--------------2-------------1-----1-0-------||
He talks to me and says my name. He'll just go back the way he came.
            
Hard to play? Try these video lessons and learn fast. | Correct




comments powered by Disqus
↑ Back to top | Tablatures and chords are parodies/interpretations of the original songs. You may use it for private study, scholarship, research or language learning purposes only