» » »

Greyhoundz, Stage Tabs (ver.1)

Artists:  A B C D E F G H I J K L M N O P Q R S T U V W X Y Z # 

Stage Tabs (ver.1)

Greyhoundz Tabs
 Rating:
3.7/5 (6 votes)
Stage lessons Tabs too difficult? Try these video lessons and learn fast
1
                                        "STAGE" BY GREYHOUNDZ

Tuning: dropped D

 intro: X4
 |--------------------|
 |--------------------|
 |----9--7-7-7--9--5--|
 |-4--9--7-7-7--9—-5--|
 |-4--7--5-5-5--7—-3--|
 |-2------------------|

           X3                then proceed here
 |-----------------------  --------------------|
 |-----------------------  --------------------|
 |-7-7-------------------  -7-7----------------|
 |-7-7-7-7-7-8-8-8-9-9-9-  -7-7-7-7-7-8-8-8-12-|
 |-5-5-------------------  -5-5----------------|

           X3                          then proceed here
 |-----------------------  --------------------| -7-7-7-8-8-8-12--
 |-----------------------  --------------------| -----------------
 |-7-7-------------------  -7-7----------------| -----------------
 |-7-7-7-7-7-8-8-8-9-9-9-  -7-7-7-7-7-8-8-8-12-| -----------------
 |-5-5-------------------  -5-5----------------| -----------------

 love, love me... (i don't the lyrics of this)
       guitar 1            guitar II
 |-------------------  --------------------|
 |-------------------  --------------------|
 |-------------------  --------------------|
 |-------------------  --5-3-3--5-6--5-5-3-|
 |-5-3-3--5-6--5-5-3-  --5-3-3--5-6--5-5-3-|
 |-------------------  --------------------|

 final riff     X2
 |-------------------------10-----------------------------|
 |--------------------------------------------------------|
 |-----------------------------------------------------10-|
 |-3--2--3--2--3--2--3--2-----3--2--3--2--3--2--3--2------|
 |-3--2--3--2--3--2--3--2-----3--2--3--2--3--2--3--2------|
 |-1--0--1--0--1--0--1--0-----1--0--1--0--1--0--1--0------|

                  <<<<>>>>
            
Submit corrections

comments powered by Disqus
↑ Back to top | Greyhoundz Tabs for Stage. Lyrics for acoustic guitar and electric guitar. 1 Tablatures and chords are parodies/interpretations of the original songs. You may use it for private study, scholarship, research or language learning purposes only