» » »

Greyhoundz, Pig Face Bass tabs (ver.2)

Artists:  A B C D E F G H I J K L M N O P Q R S T U V W X Y Z # 

Pig Face Bass tabs (ver.2)

Greyhoundz Tabs
 Rating:
4/5 (4 votes)
Pig Face lessons Tabs too difficult? Try these video lessons and learn fast
                Pig face
Tunning: D A D G

Intro:

G|-----------------------|(3x)|-------------------------|
D|-----------------------|    |-------------------------|
A|----3/2-----3/2--------|    |----7/5-----5/4-----4-2--|
D|--0-----0-0-----0-0-0--|    |--0-----0-0-----0-0------|


Tyming lng mga tsong!

Verse:

 Look at me..
G|----------------|
D|-----0-2-3------|
A|-----------4----|
D|-0-*---------0--|
   S S P P P P S

Chorus:

    Hupaw huhupaw..
G|-----------------------|(3x)|-------------------------|
D|-----------------------|    |-------------------------|
A|----3/2-----3/2--------|    |----7/5-----5/4-----4-2--|
D|--0-----0-0-----0-0-0--|    |--0-----0-0-----0-0------|


Second Verse:

   Look at me..
G|----------------|
D|-----0-2-3------|
A|-----------4----|
D|-0-*---------0--|
   S S P P P P S

Second Chorus:

G|-----------------------|(3x)|-------------------------|
D|-----------------------|    |-------------------------|
A|----3/2-----3/2--------|    |----7/5-----5/4-----4-2--|
D|--0-----0-0-----0-0-0--|    |--0-----0-0-----0-0------|


Bridge:

G|---------------------------------------------|
D|-------------------2h3p2----2h3p2---2-3------|
A|-2---2---2~~---2h4--------5-------4-----2----|
D|--------0------------------------------------|

G|------------------|     G|-----------------|
D|---0-2-----4------|(3x) D|----0-2-33-------|  timing lng!!
A|------------------|     A|-----------44----|
D|-0----------------|     D|-0------------0--|
   S P P     S               S  P P PP PP S

Chorus:

G|-----------------------|(3x)|-------------------------|
D|-----------------------|    |-------------------------|
A|----3/2-----3/2--------|    |----7/5-----5/4-----4-2--|
D|--0-----0-0-----0-0-0--|    |--0-----0-0-----0-0------|


After the chorus:

   Please dont hurt me..
G|----------------|
D|-----0-2-3------|
A|-----------4----|
D|-0-*---------0--|
   S S P P P P S

Repeat Chorus:

G|-----------------------|(3x)|-------------------------|
D|-----------------------|    |-------------------------|
A|----3/2-----3/2--------|    |----7/5-----5/4-----4-2--|
D|--0-----0-0-----0-0-0--|    |--0-----0-0-----0-0------|

    Put it away....
G|-----------------------|(3x)|-------------------------|
D|-----------------------|    |-------------------------|
A|----3/2-----3/2--------|    |----7/5-----5/4-----4-2--|
D|--0-----0-0-----0-0-0--|    |--0-----0-0-----0-0------|

Last rif:
G|----------|
D|----------|
A|----------|
D|-22--2----|

Legend:
S = Slap
P = Pop
/ = Slide
* = harmonic slap

ok mkinig..pkingan nio lng mbuti para mkuha wag mg mdali ok..Hi nga pla s banda q n 
at Mallows..pti s mga clasmates q s i.t s STI BALAGTAS pti s mga tiga LIGAS MALOLOS 
            
Submit corrections

comments powered by Disqus
↑ Back to top | Greyhoundz Bass for Pig Face. Lyrics for acoustic guitar and electric guitar. Tablatures and chords are parodies/interpretations of the original songs. You may use it for private study, scholarship, research or language learning purposes only