» » »

Greyhoundz, Ode Tabs (ver.1)

Artists:  A B C D E F G H I J K L M N O P Q R S T U V W X Y Z # 

Ode Tabs (ver.1)

Greyhoundz Tabs
Rating:
5/5 (1 vote)
Ode lessons Tabs too difficult? Try these video lessons and learn fast
                                      "ODE" BY GREYHOUNDZ

 dropped D

intro:  w/wah  (as many times)
              X3
D|---------------------||-------------------|
A|-7h9-8h9-9-9-9h10-9--||--9-9-9-9h10-9-----|
F|---------------------||-------------------|
C|---------------------||-------------------|
G|---------------------||-------------------|
D|---------------------||-------------------|

              X3
D|---------------------||-------------------|
A|-7h9-8h9-9-9-9h10-9--||-----9-9-9-9h10-9--|
F|---------------------||-9-9---------------|
C|---------------------||-------------------|
G|---------------------||-------------------|
D|---------------------||-------------------|

   Still deeply... (is my lyrics is correct?!?!)
D|-------------------------------------|
A|-9b--9-10-9---7-9-9---9h10-9---------|
F|-------------------------------------|
C|-------------------------------------|
G|-------------------------------------|
D|-------------------------------------|

              X4
D|-----------------------------------|
A|-----------------------------------|
F|----------------3------------------|
C|----------------3------------------|
G|-1-1-1-x-1-1-1--1------------------|
D|-1-1-1-x-1-1-1---------------------|

 I was, I am my... (as many times)
D|-----------------------------------|
A|-----------------------------------|
F|-2-2-2-2/3-3-2----2-2-2-2-2-2/3-2--|
C|-2-2-2-2/3-3-2----2-2-2-2-2-2/3-2--|
G|-2-2-2-2/3-3-2----2-2-2-2-2-2/3-2--|
D|-----------------------------------|
     
  Ode!     X7
D|-----------------------------------|
A|-----------------------------------|
F|----------------3------------------|
C|----------------3------------------|
G|-1-1-1-x-1-1-1--1------------------|
D|-1-1-1-x-1-1-1---------------------|


 Die with me...(bass riffs)    (guitar riffs)
D|-------------------  --10b-11-10----10-|
A|-------------------  ------------12----|
F|-------------------  ------------------|
C|-------------------  ------------------|
G|-------------------  ------------------|
D|-9-8---3-5-4-------  ------------------|

 Outro:  as many times
D|-----------------  -11h10-10-10--10h9-9-9---|
A|-----------------  -------------------------|
F|-----------------  -------------------------|
C|-----------------  -------------------------|
G|-11-10---5-7-6---  -------------------------|
D|-9--8----3-5-4---  -------------------------|
            <<<>>>
            

comments powered by Disqus
↑ Back to top | Greyhoundz Tabs for Ode. Lyrics for acoustic guitar and electric guitar. Tablatures and chords are parodies/interpretations of the original songs. You may use it for private study, scholarship, research or language learning purposes only