» » »

Mr Pig Tabs (ver.2)

Artists:  A B C D E F G H I J K L M N O P Q R S T U V W X Y Z # 

Mr Pig Tabs (ver.2)

Greyhoundz
Rating:
0/5 (0 votes)

Hard to play? Try these video lessons and learn fast.
                "(1)
album:seven corners of your game
legend:pedal pitch press up ^.....pedal pitch push down v
       ()natural harmonics.....<>artificial harmonics
I tune this on drop D
     text/call or text/call 09193216020

intro:(you guys there its now your bussiness to count how many times is this) 
guitar I first then guitar II
E|-------------------------||-------|
B|-------------------------||-------|
G|-------------------------||-------|
D|--4/5\4/5---------7-7-6--||--4/5--|
A|--2/3\2/3---------5-5-4--||--2/3--|
D|--0/0\0/0--0-0-0--0-0-0--||--0/0--|
             . . .
Intro part II
E|---------------------------|
B|---------------------------|
G|---------------------------|
D|--4-4-4-4--7--4-4-4-4-5-6--|
A|--2-2-2-2--5--2-2-2-2-3-4--|
D|--0-0-0-0--0--0-0-0-0-0-0--|
    . . . .     . . . 

stanza                       ^ v  ^  v  ^ v  ^   
E|-------------------------------------------------------|
B|--/12--------------------12------------------10h11p10--|
G|------11-12----10h11p10--------11----10----------------|
D|------------12----------------------------12-----------|
A|-------------------------------------------------------|
D|-------------------------------------------------------|

riff b4 bridge(heavy distort with low vol.)
guitar I
E|-------------------------|
B|-------------------------|
G|-------------------------|
D|--1p0-0h3p1-0h1p0-0h3p1--|
A|--1p0-0h3p1-0h1p0-0h3p1--|
D|--1p0-0h3p1-0h1p0-0h3p1--|

guitar I&II(heavy distort. with high vol.
E|------------------------|
B|-------------------(7)--|
G|-------------------(7)--|
D|--1p0-0h3p1-------------|
A|--1p0-0h3p1-0-0-0-------|
D|--1p0-0h3p1-0-0-0-------|
              . . .
E|---------------|
B|---------------|
G|---------------|(8x)
D|--0h1p0-0h3p1--|
A|--0h1p0-0h3p1--|
D|--0h1p0-0h3p1--|
bridge:
E|-------------------------(7)--|
B|------------------------------|
G|------------------------------|
D|--1-0-0-3-3-1-0-0-0-0-0-------|
A|--1-0-0-3-3-1-0-0-0-0-0-------|
D|--1-0-0-3-3-1-0-0-0-0-0-------|
    . . . . . . . . . . . 
finalle
E|---------------|
B|---------------|
G|---------------|
D|--0h1p0-0h3p1--|
A|--0h1p0-0h3p1--|
D|--0h1p0-0h3p1--|

repeat chorus
repeat lasst riff

                                     the_end
"            
Hard to play? Try these video lessons and learn fast. | Correct




comments powered by Disqus
↑ Back to top | Tablatures and chords are parodies/interpretations of the original songs. You may use it for private study, scholarship, research or language learning purposes only