>
 >
Monologue

Monologue Guitar Tabs

Greyhoundz - Monologue chords, tabs, tablatures, lyrics

Guitar lessons | Add/correct | Request | Top 50 tabs Artists:  A B C D E F G H I J K L M N O P Q R S T U V W X Y Z 0-9

Monologue Guitar Tabs – Greyhoundz

CD, Sheet music, Poster

Do you like Monologue? Share with your friends now
Tabs
This is my first tab in the band Greyhoundz so i hope you like it!

Band:Greyhoundz

TUNNING:DADGBE

Intro:
|-777--101010--101010---999----------------|
|-777--101010--111111---999---151515-------|
|------------------------------------------|
|------------------------------------------|
|------------------------------------------|
|------------------------------------------|

|--------------------------------------|
|--------------------------------------|
|--------------------------------------|
|-444--77777---6666--121212------------|
|-222--55555---4444--101010------------|
|--------------------------------------|

|--------------------------------------|
|--------------------------------------|
|-44444444---777777--6666---12121212---|
|-xxxxxxxx---xxxxxx--xxxx----x-x-x-x---|
|-22222222---555555--4444---10101010---|
|--------------------------------------|


Verse  (i think in this part they use some insane effects)
|------------------------------------|
|-0-0-0-0-0-0-0-0-0-0-0-0-0-0-0-0----|
|------------------------------------|
|------------------------------------|
|------------------------------------|
|------------------------------------|

Chorus Part A (Play this really fast)
|------------------------------------|
|------------------------------------|
|-10/-8-8--4--10/-8-8-8/-10----------|
|--x/-x-x--x---x/-x-x-x/--x----------| 4x
|--8/-6-6--2---8/-6-6-6/--8----------| 
|------------------------------------|

Part B (play This Really fast & just figure out how many times 
you will play it)
|------------------------------------|
|------------------------------------|
|------------------------------------|
|-------------------3----------------|
|----------5p3--0h3-3----------------|
|00000-1h3----------3----------------|

1st Guitar
|--------------------------------------|
|--------------------------------------|
|--------------------------------------|
|-444--77777---6666--121212------------|
|-222--55555---4444--101010------------|
|--------------------------------------|

2nd Guitar
|---------------------------------------|
|---------------------------------------|
|-4-4-4--7-7-7-7-7---6-6-6-6--12-12-12--|
|-x-x-x--x-x-x-x-x---x-x-x-x---x--x--x--|
|-2-2-2--5-5-5-5-5---4-4-4-4--10-10-10--|
|---------------------------------------|


Verse
|------------------------------------|
|-0-0-0-0-0-0-0-0-0-0-0-0-0-0-0-0----|
|------------------------------------|
|------------------------------------|
|------------------------------------|
|------------------------------------|

Chorus Part A (Play this really fast)
|------------------------------------|
|------------------------------------|
|-10/-8-8--4--10/-8-8-8/-10----------|
|--x/-x-x--x---x/-x-x-x/--x----------| 4x
|--8/-6-6--2---8/-6-6-6/--8----------|
|------------------------------------|

Part B (play This Really fast)
|--------------------------------------|
|--------------------------------------|
|--------------------------------------|
|---------------------3----------------|
|----------5p3--0h3p0-3----------------|
|00000-1h3------------3----------------|

Play this part until fade
|-777--101010--101010---999----------------|
|-777--101010--111111---999---151515-------|
|------------------------------------------|
|------------------------------------------|
|------------------------------------------|
|------------------------------------------|

Then do this Part
|-7---10--9------------------|
|--------------15------------|
|----------------------------|
|----------------------------| 4x
|----------------------------|
|----------------------------|

|--------------------------------------|
|--------------------------------------|
|--------------------------------------|
|-444--77777---6666--121212------------| 5x
|-222--55555---4444--101010------------|
|--------------------------------------|

|--------------------------------------|
|--------------------------------------|
|-44444444---777777--6666---12121212---|
|-xxxxxxxx---xxxxxx--xxxx----x-x-x-x---| 2x
|-22222222---555555--4444---10101010---|
|--------------------------------------|

|--------------------------------------|
|--------------------------------------|
|--------------------------------------|
|---------------------3----------------|
|----------5p3--0h3p0-3----------------|
|00000-1h3------------3----------------|


OUtro (In this part play this slow ,just fllow the 
fucking music ok!) 
|--------------------------------------|
|--------------------------------------|
|--------------------------------------|
|---------------------3----------------|
|----------5p3--0h3p0-3----------------|
|00000-1h3------------3----------------|


If you have any suggestion,comments and corrections
or call me and text me 09193774244,ok!
thnks!
R O C K  R U L E Z!!!!!!!!!!!!!





Comments


Popular Greyhoundz tabs & chords
Apoy Bass Tabs
Koro Bass Tabs
Leech Bass Tabs
Shoot To Kill Bass Tabs
Apoy 2 Tabs
Doble Kara Tabs
Doble Kara 2 Tabs
Hinahanap Tabs
Shoot To Kill 1 Tabs
Stage Tabs


Song lyrics



↑ Back to top | Tablatures and chords are parodies/interpretations of the original songs. You may use it for private study, scholarship, research or language learning purposes only
© 2014 AZChords.com Contact us | Privacy policy | DMCA | Add/correct tabs | Request tabs | Top 50 tabs