>
 >
Im Your Puppetz And Clown

Im Your Puppetz And Clown Bass Tabs

Greyhoundz - Im Your Puppetz And Clown chords, tabs, tablatures, lyrics

Guitar lessons | Add/correct | Request | Top 50 tabs Artists:  A B C D E F G H I J K L M N O P Q R S T U V W X Y Z 0-9

Im Your Puppetz And Clown Bass Tabs – Greyhoundz

CD, Sheet music, Poster

Do you like Im Your Puppetz And Clown? Share with your friends now
Bass Tabs
GrEYhOuNdZ - PupPeTz and cLowN


paseNsYa n mga ToL 6StRiNg toh e.....
pero ginaWa ko sa 4StRing...
KaTuNog nmn e....
PaRa Sa RaKisTaNg tuNaY ng NovaLiChES!!!!
hehehehe....

/ = Slide up
\ =slide down
~ = leT ring
* = harmonics


IntRo:
G|-----------------|
D|-----------------|
A|-------2~-//////-|
D|---0~------------|


intRo1:
G|----------------------------------------------------------------|
D|----------------------------------------------------------------| 2x
A|--22-----------------242-----/77-------------------------797----|
D|-------445500---0245---------------991010-----55---57910--------|

G|-----------------------------------------------------------------------------------|
D|-------------797------57-5~-------9-8-6--------------575--------353---------131----| LiStEN crEfuLLy
A|-9~-\2~---79-----9757--------353--------7975753---57----570---35----530--13----31--| maLuPiT n sKaLa 
D|-----------------------------------------------------------------------------------|  lang yaN

Verse:
G|----------------|  |-------------------|   |
D|----------------|2x|-------------------|2x |
A|--22------------|  |---77--------------|   | 4xlahat toh
D|------4455--00--|  |-------991010---55-|   |



HoLd Me......
G|----------------|  
D|----------------|8x
A|--22------------| 
D|------4455--00--|  


G|--44444--/55555---\44444--/55555-----\44444------|
D|--44444--/55555---\44444--/55555-----\44444------|  2x  STrUm nio un part n2
A|--22222--/33333---\22222--/33333-----\33333------|
D|-------------------------------------------------|


G|-----------------------------------------|
D|-----------------------------------------| pauliT-uLit n yaN.....
A|-----------------------------------------|
D|--02020202b----02020202---02020202b------|

G|----------------------------------------------------------------|
D|---------------575---------353-----------575-------57-97--------|sKaLaNg MaLuPeT....
A|------2~----/57----75---35-----530----57-----75--57-------------|  heheheh
D|--0~------------------------------------------------------------|

Verse2:
G|----------------|  |----------------------|   
D|----------------|2x|-------------------24*| LiStEn CaReFuLLy My haRmONics dYn....
A|--22------------|  |---77-----------------|   
D|------4455--00--|  |-------991010---55----|   

HoLd Me......
G|----------------|  
D|----------------|8x
A|--22------------| 
D|------4455--00--|


G|--44444--/55555---\44444--/55555-----\44444------|
D|--44444--/55555---\44444--/55555-----\44444------|  2x  STrUm nio un part n2
A|--22222--/33333---\22222--/33333-----\33333------|
D|-------------------------------------------------|


G|-----------------------------------------|
D|-----------------------------------------| pauliT-uLit n yaN.....
A|-----------------------------------------|
D|--02020202b----02020202---02020202b------|


G|-------------------------------11h12-11-----------|
D|---------------------9-12-9-10--------------------| 8x
A|-----------8----8-10------------------------------|
D|--9-10-12----10-----------------------------------|


G|-----------------------------------------|
D|-----------------------------------------| pauliT-uLit n yaN.....
A|---54-54--2/4----------------------------|
D|-----------------------------------------|


G|--44444--/55555---\44444--/55555-----\44444------|
D|--44444--/55555---\44444--/55555-----\44444------|  2x  STrUm nio un part n2
A|--22222--/33333---\22222--/33333-----\33333------|
D|-------------------------------------------------|


G|-----------------------------------------|
D|-----------------------------------------| pauliT-uLit n yaN.....
A|-----------------------------------------|
D|--02020202b----02020202---02020202b------|

im ur puppet im ur clown
G|-----------------------------------------|
D|-----------------------------------------| pauliT-uLit n yaN.....
A|---54-54--2/4----------------------------|
D|-----------------------------------------|


Verse:
G|----------------|  |-------------------|   |
D|----------------|2x|-------------------|2x |
A|--22------------|  |---77--------------|   | 4x TPuS Na!!!!
D|------4455--00--|  |-------991010---55-|   |


iRaTe nio e2 to d higheST LeVeL.....nyeeee
kunG gusTo nio 2g2gin un hoLe ng gReYhOuNDz....
meRoN ako DyaN.......
KuNg Gus2 nio aq aDd sa FreNdSter::
kuNg My kaTanunGaN itxt lng ako sa 
09273731826
SaLaMaT.....


BaNDa ko Nga pLa....
:::osTrAcIzE:::
add nio kme sa FriendsTer!!!!
baHisTa    : niKO  
giTaRisTa  : deO 
ritiMisTa  : E-knoD
tAmBoLisTa : AllAn 
BoKaLisTa  : AlViN





Comments


Popular Greyhoundz tabs & chords
Karmic Bass Tabs
Koro Bass Tabs
Pig Face Bass Tabs
Shoot To Kill 2 Bass Tabs
Doble Kara 1 Tabs
Dragon Flies Tabs
Gunner Tabs
Party 802 Intro Tabs
Pig Face Tabs
Your Puppet And Clown Tabs


Song lyrics



↑ Back to top | Tablatures and chords are parodies/interpretations of the original songs. You may use it for private study, scholarship, research or language learning purposes only
© 2014 AZChords.com Contact us | Privacy policy | DMCA | Add/correct tabs | Request tabs | Top 50 tabs