» » »

Greyhoundz, Hole Bass tabs (ver.2)

Artists:  A B C D E F G H I J K L M N O P Q R S T U V W X Y Z # 

Hole Bass tabs (ver.2)

Greyhoundz Tabs
 Rating:
4/5 (4 votes)
Hole lessons Tabs too difficult? Try these video lessons and learn fast
1
                GreYHoUnDZ---HoLe(Live)

iDoL ko ToNg BaHisTa ng grEyhOundZ eh....
KaYa ginaWa ko Toh....
bAsTa PlAY niO n lng Yan....
ThaT is  10000000% SuRe.....
heheheheh....


s = SLAP
p = pop/pluck 
x = slap ded string
~ = let ring
/ = slide
b = bend

Intro: 
G:---------------------------------|  |-----------------|
D:---------1-----------------------|7x|----1------3-----|2x ->e2 lasT note sa huLi
A:---------------------------------|  |-----------------|
E:-0-1-0---------------------------|  |-x-----x---------|     |--0~-|
   s s s   p                            s  p  s   p              s


beFoRe the VerSe1:
G:---------------------------------------------------------| 
D:---------------------------------------------------------| 4x 
A:-------------5~---444---222------------------------------| 
E:--0-1-/33-/5---------------------------------------------|

VerSe1;
G:------------------------------------------------------| 
D:------------------------------------------------------| 8x ->e2 LasT noTe sa HuLi 
A:--------------12b----------10b--------8b----7b--------| 
E:-0-3-0-3---/12--- 12b-10b------10--9b----0~-----------|      |--0~-|
                                                                  s
 
ChOrUZ: 4x
stress......
G:---------------------------------|  |-----------------|
D:---------1-----------------------|7x|----1------3-----| 4x ->e2 last note sa huLi
A:---------------------------------|  |-----------------|
E:-0-1-0---------------------------|  |-x-----x---------|      |--0~-|
   s s s   p                            s  p  s   p               s



beFoRe the VerSe2:
G:------------------------------------------------------| 
D:------------------------------------------------------| 4x 
A:-------------5~---444---222---------------------------| 
E:--0-1-/33-/5------------------------------------------|


veRse2;
G:------------------------------------------------------| 
D:------------------------------------------------------| 8x ->e2 LasT noTe sa HuLi 
A:--------------12b----------10b--------8b----7b--------| 
E:-0-3-0-3---/12--- 12b-10b------10--9b----0~-----------|      |--0~-|
                                                                  s

ChoRuZ;
G:---------------------------------|  |-----------------|
D:---------1-----------------------|7x|----1------3-----| 4x 
A:---------------------------------|  |-----------------|
E:-0-1-0---------------------------|  |-x-----x---------|      
   s s s   p                            s  p  s   p              
 

soRi mga tsoNg ndi ko pa Alam un basS liNe s BrIdgE.....
PerO cguRaDo Ako n pareHo Lng Ng gitara Un Bass liNe DuN.....
LagYan nyo n Lng muna ng skaLa!!!
hehehehe......



ChoRuZ;
G:---------------------------------|  |-----------------|
D:---------1-----------------------|7x|----1------3-----| 8x 
A:---------------------------------|  |-----------------|
E:-0-1-0---------------------------|  |-x-----x---------|      
   s s s   p                            s  p  s   p       


tPuz e2 un huLi....
G:---------------------------------------------------------| 
D:---------------------------------------------------------|  
A:-------------5~---444---222------------------------------| 
E:--0-1-/33-/5---------------------------------------------|


mga Tsong iraTe nio toh 2 d higheSt leVeL.....
nagPapaSaLaMaT ako sa mga kaBanDa q ....
PoTyA aNg LuPeT....
PaTi nga pLa sa oaTh KeePer...
akO din BaHisTa nuN....
ToL GaLiNgAn NtN....
whahahahaa.....


:::OsTrCiZe:::
add nio kme sa FriendsTer!!!!
baHisTa    : niKO  
giTaRisTa  : deO 
ritiMisTa  : E-knoD
tAmBoLisTa : AllAn 
BoKaLisTa  : AlViN


KuNg My maLi TeXT Me....
09273731826
            
Submit corrections

comments powered by Disqus
↑ Back to top | Greyhoundz Bass for Hole. Lyrics for acoustic guitar and electric guitar. 1 Tablatures and chords are parodies/interpretations of the original songs. You may use it for private study, scholarship, research or language learning purposes only