>
 >
Ginoong Baboy

Ginoong Baboy Guitar Tabs

Greyhoundz - Ginoong Baboy chords, tabs, tablatures, lyrics

Guitar lessons | Add/correct | Request | Top 50 tabs Artists:  A B C D E F G H I J K L M N O P Q R S T U V W X Y Z 0-9

Ginoong Baboy Guitar Tabs – Greyhoundz

CD, Sheet music, Poster

Do you like Ginoong Baboy? Share with your friends now
Tabs
Intro:

C#---------------------------   ---
G#---------------------------   ---
E ---------------------------3x ---
B -----------0-0-0--0-3-2----   -1-
F#-----------0-0-0--0-3-2----   -1-
B --0h1-0-1--0-0-0--0-3-2----   -1-
p.m.         - - -

C#---------------------------  
G#---------------------------   
E ---------------------------4x 
B -----------0-0-0--0-3-2----   
F#-----------0-0-0--0-3-2----   
B --0h1-0-1--0-0-0--0-3-2----   
p.m.         - - -

C#----------------------------
G#----------------------------
E ----------------------------4x
B --0000-------0-0-0--0-3-2---
F#--0000-------0-0-0--0-3-2---
B --0000--3p2--0-0-0--0-3-2---
p.m.----       - - -  -

Verse:

gtr.1                gtr.2
C#-10---------------|-------------------
G#----10--9--9h10p9-|-------------------
E ------------------|--7----------------4x
B ------------------|-----7--6--6--7--6-
F#------------------|-------------------
B ------------------|-------------------

gtr.1                gtr.2
C#-22---------------|-----------------------
G#----22-21-21h22p21|-----------------------
E ------------------|-----------------------4x
B ------------------|--0000-3-0-2-000-3p2---
F#------------------|--0000-3-0-2-000-3p2---
B ------------------|--0000-3-0-2-000-3p2---
p.m.                   ----   -   ---

repeat chorus, verse & chorus

Bridge:

C#---------------------------------------------------
G#---------------------------------------------------
E ---------------------------------------------------
B --4p3-3-5p4-4-4p3-3-5p4-4-4p3-5p4-4-4p3--3--3--3---
F#--4p3-3-5p4-4-4p3-3-5p4-4-4p3-5p4-4-4p3--3--3--3---
B --4p3-3-5p4-4-4p3-3-5p4-4-4p3-5p4-4-4p3--3--3--3---
p.m.                                       -  -  -

C#------------------
G#------------------
E ------------------8x
B --4p3--3--5p4--4--
F#--4p3--3--5p4--4--
B --4p3--3--5p4--4--

gtr.1                 gtr.2
C#-----------------|  ----22-
G#-----------------|  -------
E -----------------|8x-------8x
B --4p3--3--5p4--4-|  -------
F#--4p3--3--5p4--4-|  -------
B --4p3--3--5p4--4-|  -------
p.m.- -  -  - -  -

gtr.1            gtr.2
C#-----------|   --16--
G#-----------|   --21b-
E -----------|8x ------9x
B -----------|   ------
F#-----------|   ------
B --0h1-0h1--|   ------

repeat chorus

Outro:

C#-------------|-----------------
G#-------------|-----------------
E -------------|15x--------------
B --5p4-4-6p5-5|-----0-0--0-0----
F#--5p4-4-6p5-5|-----0-0--0-0----
B --5p4-4-6p5-5|-----0-0--0-0----

_EnD_





Comments


Popular Greyhoundz tabs & chords
Im Your Puppetz And Clown Bass Tabs
Pig Face 1 Bass Tabs
Shoot To Kill Bass Tabs
Doble Kara 1 Tabs
Hinahanap Tabs
Hole Tabs
Leech 2 Tabs
Shoot To Kill Tabs
Your Puppet And Clown Tabs
Your Puppet And Clown 1 Tabs


Song lyrics



↑ Back to top | Tablatures and chords are parodies/interpretations of the original songs. You may use it for private study, scholarship, research or language learning purposes only
© 2014 AZChords.com Contact us | Privacy policy | DMCA | Add/correct tabs | Request tabs | Top 50 tabs