» » »

Greyhoundz, Dragon Flies Tabs (ver.1)

Artists:  A B C D E F G H I J K L M N O P Q R S T U V W X Y Z # 

Dragon Flies Tabs (ver.1)

Greyhoundz Tabs
 Rating:
4.2/5 (5 votes)
Dragon Flies lessons Tabs too difficult? Try these video lessons and learn fast
                pages/Arista-Lucena/226729694026830

SHC
Lucena
Tuning - Drop B
+-harmonic
Intro-
|--------------------------------------------------------------|
|--------------------------------------------------------------|
|--------------------------------------------------------------|
|-12/-0-7-0-3-0-5-0-7-0-3-0-5-0-7-0-3-0-5--7-8-7-3--2----------|
|-12/-0-7-0-3-0-5-0-7-0-3-0-5-0-7-0-3-0-5--7-8-7-3--2----------|
|-12/-0-7-0-3-0-5-0-7-0-3-0-5-0-7-0-3-0-5--7-8-7-3--2----------|
            +           +           +
|-----------------------------------------------------------|
|-----------------------------------------------------------|
|-----------------------------------------------------------|3x
|--0-7-0-3-0-5-0-7-0-3-0-5-0-7-0-3-0-5--7-8-7-3--2----------|
|--0-7-0-3-0-5-0-7-0-3-0-5-0-7-0-3-0-5--7-8-7-3--2----------|
|--0-7-0-3-0-5-0-7-0-3-0-5-0-7-0-3-0-5--7-8-7-3--2----------|
         +           +           +
Verse-
|-------------------------------------------|
|-------------------------------------------|
|-------------------------------------------|
|-0-0-10/---0-00-8---0-0-7/---0-0-33-2-3----|4x
|-0-0-10/---0-00-8---0-0-7/---0-0-33-2-3----|
|-0-0-10/---0-00-8---0-0-7/---0-0-33-2-3----|

Interlude-
|----------------------------------------------|
|----------------------------------------------|
|----------------------------------------------|
|----------------------------------------------|
|-000-777-333-555-77-33-555-777-333-555--------|
|-000-777-333-555-77-33-555-777-333-555-8-7-33-|
  *** *** *** *** ** ** *** *** *** *** 
|----------------------------------------------|
|----------------------------------------------|
|----------------------------------------------|
|----------------------------------------------|
|----------------------------------------------|
|-000-777-333-555-77-33-555-777-333-555-8-7-33-|


Chorus-

|--------------------------------------------------------------|
|--------------------------------------------------------------|
|--------------------------------------------------------------|
|-12/-0-7-0-3-0-5-0-7-0-3-0-5-0-7-0-3-0-5---8-7-3--2-----------|
|-12/-0-7-0-3-0-5-0-7-0-3-0-5-0-7-0-3-0-5---8-7-3--2-----------|
|-12/-0-7-0-3-0-5-0-7-0-3-0-5-0-7-0-3-0-5---8-7-3--2-----------|
            +           +           +
|-----------------------------------------------------------|
|-----------------------------------------------------------|
|-----------------------------------------------------------|
|--0-7-0-3-0-5-0-7-0-3-0-5-0-7-0-3-0-5---8-7-3--2-----------|3x
|--0-7-0-3-0-5-0-7-0-3-0-5-0-7-0-3-0-5---8-7-3--2-----------|
|--0-7-0-3-0-5-0-7-0-3-0-5-0-7-0-3-0-5---8-7-3--2-----------|
         +           +           +
Repeat Verse-Chorus

Chorus2-


|-----------------------------------------------------------------------|
|-----------------------------------------------------------------------|
|-----------------------------------------------------------------------|
|-00000000-55555555-55555555-00000000-88888888--1010101010101010--------|2x
|-00000000-33333333-33333333-00000000-66666666--8-8-8-8-8-8-8-8---------|
|-00000000-------------------00000000-----------------------------------|

|-----------------------------------------------------------------------|
|-----------13^r~--------------15^r~------------17^r~-----------20^r~---|
|-----------------------------------------------------------------------|
|-00000000----------00000000----------00000000----------00000000--------|
|-00000000----------00000000----------00000000----------00000000--------|
|-00000000----------00000000----------00000000----------00000000--------|

|----------------------------------------------|
|----------------------------------------------|
|----------------------------------------------|
|----------------------------------------------|2x
|----------------------------------------------|
|-0+-7+-0+-7+-8+-3+-7+-8+-5+-7+--8-7--3-2------|


Chorus-

|-----------------------------------------------------------|
|-----------------------------------------------------------|
|-----------------------------------------------------------|
|--0-7-0-3-0-5-0-7-0-3-0-5-0-7-0-3-0-5---8-7-3--2-----------|
|--0-7-0-3-0-5-0-7-0-3-0-5-0-7-0-3-0-5---8-7-3--2-----------|
|--0-7-0-3-0-5-0-7-0-3-0-5-0-7-0-3-0-5---8-7-3--2-----------|
         +           +           +  
|----------------------------------------------|
|----------------------------------------------|
|----------------------------------------------|
|----------------------------------------------|
|----------------------------------------------|
|-000-777-333-555-77-33-555-777-333-555-8-7-33-|


|-----------------------------------------------------------|
|-----------------------------------------------------------|
|-----------------------------------------------------------|
|--0-7-0-3-0-5-0-7-0-3-0-5-0-7-0-3-0-5---8-7-3--2-----------|
|--0-7-0-3-0-5-0-7-0-3-0-5-0-7-0-3-0-5---8-7-3--2-----------|
|--0-7-0-3-0-5-0-7-0-3-0-5-0-7-0-3-0-5---8-7-3--2-----------|
         +           +           +

|-----------------------------------------------------------------------|
|-----------13^r~--------------15^r~------------17^r~-----------20^r~---|
|-----------------------------------------------------------------------|
|-00000000----------00000000----------00000000----------00000000--------|
|-00000000----------00000000----------00000000----------00000000--------|
|-00000000----------00000000----------00000000----------00000000--------|

outro-
|-----------------------------------------------------------------------|
|-----------------------------------------------------------------------|
|-----------------------------------------------------------------------|
|-00000000-55555555-55555555-00000000-88888888--1010101010101010--------|2x
|-00000000-33333333-33333333-00000000-66666666--8-8-8-8-8-8-8-8---------|
|-00000000-------------------00000000-----------------------------------|
            
Submit corrections

comments powered by Disqus
↑ Back to top | Greyhoundz Tabs for Dragon Flies. Lyrics for acoustic guitar and electric guitar. Tablatures and chords are parodies/interpretations of the original songs. You may use it for private study, scholarship, research or language learning purposes only