» » »

Doble Kara Tabs (ver.4)

Artists:  A B C D E F G H I J K L M N O P Q R S T U V W X Y Z # 

Doble Kara Tabs (ver.4)

Greyhoundz
Rating:
0/5 (0 votes)

Hard to play? Try these video lessons and learn fast.
                doble kara po
hi to all just rate na lang po!!!!

Tuning: DROP d

legends!

p = palmute
s = slide
p* = pull up
p- = pull down
drop d ang intro ha!!!!

           intro 1
|--------------------------------|
|--------------------------------|
|--------------------------------|        e2 ung fisrt dun sa intro
|-----2222-/3-2------------------|        bale 2X nyo e2ng gagawin pero
|--/3-----------5--6--3----------|        mauuna lang e2 bale alternate
|--------------------------------|        cla.


            intro 2
|--------------------------------|        e2 nmn ung second na tunog dun
|--------------------------------|        sa intro bale e2 ung second na
|--------------------------p*5---|        gagawin nyo pag katapos nung
|-----222-/3-2-------------------|        intro 1. 2X nyo clang gagawin.
|--/3------------6-5--6|---------|
|--------------------------------|


e2 ung 2nd into na may strum na!!! hehehe
bale 3X nyo 2ng gagawin tpos ung break na nasa baba un ung pang huli
n makikinig mo sa intro bago mag veres1!!!!

|--2--|--0--|--3--|--0--|--4--|--0--|--5--|--0--|--5/6/5--|
|--2--|--0--|--3--|--0--|--4--|--0--|--5--|--0--|--5/6/5--|
|--2--|--0--|--3--|--0--|--4--|--0--|--5--|--0--|--5/6/5--|
|--2--|--0--|--3--|--0--|--4--|--0--|--5--|--0--|--5/6/5--|
|--2--|--0--|--3--|--0--|--4--|--0--|--5--|--0--|--5/6/5--|
|--2--|--0--|--3--|--0--|--4--|--0--|--5--|--0--|--5/6/5--|

                          |
                       \  |  /
                        \ | /
                         \|/
                          .

          e2 nmn ung break dun sa may strum na into ung makikining
          nyo na 2 times pag katapos nun tatlong ulit na strum na
          intro!!!


|--5--|--6--|
|--5--|--6--|
|--5--|--6--|
|--5--|--6--|
|--5--|--6--|
|--5--|--6--|


verse1
drop d to ha!
e2 ung may palmute na
note: pababa lahat ng strum!

|--000-00-|--111-11-|\------ /
|--000-00-|--111-11-| \----- /     2x nyo rin tong gagawin kung gano kadame
|--000-00-|--111-11--------- /  \    ung no.s ganun din kadadmi ung strum.
|--000-00-|--111-11-| ------ /
|--000-00-|--111-11-|------- /
|--000-00-|--111-11--------- /

vers2


|--000--|--------|--000--|--5--4-|
|--000--|--------|--000--|--5--4-|
|--000--|--------|--000--|--5--4-|
|--000--|--------|--000--|--5--4-|
|--000--|--5555-4|--000--|--5--4-|
|--000--|--------|--000--|--5--4-|

bagsakan time!!!!
nakakalimot!!!!!
palmut lahat yan ha!!!! (0.-)

|--22--33--55--77--55--44--22--55--|
|--22--33--55--77--55--44--22--55--|
|--22--33--55--77--55--44--22--55--|
|--22--33--55--77--55--44--22--55--|
|--22--33--55--77--55--44--22--55--|
|--22--33--55--77--55--44--22--55--|


chorus!!!
ung chrous  gawin nyo ung ung intro na may stru bale dalawng bses ba ganun tapus un na un.
!!!

tapus bridge na!!!
slide nyo ung pick nyon sa 6 string at 5 strings tapos un na un makukuha mo na.

nasilaw sa ilaw!!!

|---------------------------p00000--|
|---------------------------p00000--|
|---------------------------p00000--|
|---------------------------p00000--|
|--3-1-3-/4-3-1-3-4--6-5-4--p00000--|
|---------------------------p00000--|

e2 ung mabilis na strum na may slide gawin nyo to kalinagan po!
|--00--5/4--00--3/2--00--5/4--0--3/2--000--00-----000--111--000--111--|
|--00--5/4--00--3/2--00--5/4--0--3/2--000--00-----000--111--000--111--|
|--00--5/4--00--3/2--00--5/4--0--3/2--000--00-----000--111--000--111--|
|--00--5/4--00--3/2--00--5/4--0--3/2--000--00-----000--111--000--111--|
|--00--5/4--00--3/2--00--5/4--0--3/2--000--00-----000--111--000--111--|
|--00--5/4--00--3/2--00--5/4--0--3/2--000--00-----000--111--000--111--|

kasunod nun ay
gawin nyo ulit ung intro!!!

tapus nyan ay ung intro na may strum bali ung intro na may strum ay chorus din un!! cge 
na bahala na mag rate d2 bata yan ang pakinig ko sa song


|NOTE:|
pag may coments po message kay0 sakin sa friendster:
09064171963
caution band po ng tayabas!!!
mabuhay ang metal ng tayabas!!!!
            
Hard to play? Try these video lessons and learn fast. | Correct




comments powered by Disqus
↑ Back to top | Tablatures and chords are parodies/interpretations of the original songs. You may use it for private study, scholarship, research or language learning purposes only