>
 >
Battle Cry

Battle Cry Bass Tabs

Greyhoundz - Battle Cry chords, tabs, tablatures, lyrics

Guitar lessons | Add/correct | Request | Top 50 tabs Artists:  A B C D E F G H I J K L M N O P Q R S T U V W X Y Z 0-9

Battle Cry Bass Tabs – Greyhoundz

CD, Sheet music, Poster

Do you like Battle Cry? Share with your friends now
Bass TabsTabs
        Battle Cry by Greyhoundz

Standard 5 Strings

INTRO
G|--------------------------|     -------|
D|--------------------------|4x   -------|
A|--------------------------|then -------|
E|--------------------------|     -------|
B|-00-0000-0-0000-0-00000---|     -12\---|

  INTRO II
G|-----------------------------------------------------|
D|-----------------------------------------------------|
A|-----------------------------------------------------|4x
E|----10\9--------10\9--------10\9---------------------|
B|-00------000000------000000------000-55-77-88-10-10--|

  VERSE I
G|------------------------|   -------------------------------|
D|------------------------|   -------------------------------|
A|---------9--------------|4x -----------9-------------------|4X
E|-7-10\-7---77-99-10-10--|   -7-9-10\-7---77-99-10-10-------|
B|------------------------|   -------------------------------|

REPEAT INTRO II ONCE

G|--------------------------------------|
D|--------------------------------------|
A|--------------------------------------|3x
E|--------------------------------------|
B|-2-02-0202-55-5555-0-01-01-01-01-010--|

G|--------------------------------------|
D|--------------------------------------|
A|--------------------------------------|
E|--------------------------------------|
B|-2-22-22-5-55-55-1-11-11-11-1-11------|

  CHORUS
G|-----------------------------------------------|
D|-----------------------------------------------|
A|---------------------------10-9-----------9-8--|4X
E|--------------------------------12-10-9-7------|
B|-0-10\-0-0-0-12\-0-0-0-15\---------------------|

  SOLO
G|-----------------------|
D|-----------------------|
A|-----------------------|7x
E|-----------------------|
B|-00001h2-00001h2-0000--|

G|-----------------------|
D|-----------------------|
A|-3-2-0----------0------|
E|-------2--00-002-------|
B|------------------0----|

G|-----------------------|
D|-----------------------|
A|-----------------------|8x
E|-------58-7------------|
B|-00-75-----077---------|

Repeat Chorus

G|--------------------------|
D|--------------------------|
A|--------------------------|8x
E|--------------------------|
B|-00-0000-0-0000-0-00000---|

G|--------------------------|
D|--------------------------|
A|--------------------------|6x till fade
E|-/77-7777-7-7777-7-77777\-|
B|--------------------------|





Comments


Popular Greyhoundz tabs & chords
Karmic Bass Tabs
Bonfires And Sandcastles Tabs
Doble Kara 1 Tabs
Doble Kara 2 Tabs
Doble Kara 3 Tabs
Ginoong Baboy Tabs
Gunner Tabs
Leech 1 Tabs
Leech 2 Tabs
Shoot To Kill Tabs


Song lyrics



↑ Back to top | Tablatures and chords are parodies/interpretations of the original songs. You may use it for private study, scholarship, research or language learning purposes only
© 2014 AZChords.com Contact us | Privacy policy | DMCA | Add/correct tabs | Request tabs | Top 50 tabs