>
 >
Fake Reality

Fake Reality Guitar Tabs

Grey Box - Fake Reality chords, tabs, tablatures, lyrics

Guitar lessons | Add/correct | Request | Top 50 tabs Artists:  A B C D E F G H I J K L M N O P Q R S T U V W X Y Z 0-9

Fake Reality Guitar Tabs – Grey Box

CD, Sheet music, Poster

Do you like Fake Reality? Share with your friends now
Tabs
Intro 4x

[-----------------------------------------------------------------------]
[-----------------------------------------------------------------------]
[-----------------------------------------------------------------------]
[---0---6---0-80-90-------------------------------------------]
[------------------------------9-8-6-5--------------------------------]
[-----------------------------------------------------------------------]



Verse (clean)

[--------------------------------------------------------------------------------------------]
[--------------------------------------------------------------------------------------------]
[--------------------------------------------------------------------------------------------]
[---6-6-6-6-6-6-6-6-8-8-8-8-8-8-8-8-9-9-9-9-9-9-9-9------------------------------]
[---4-4-4-4-4-4-4-4-6-6-6-6-6-6-6-6-7-7-7-7-7-7-7-7------------------------------]
[--------------------------------------------------------------------------------------------]

[----------------------------------------------------------------------------------------------]
[----------------------------------------------------------------------------------------------]
[----------------------------------------------------------------------------------------------]
[----------------------------------------------------------------------------------------------]
[---9-9-9-9-875----------------------------------------------------------------------]
[---7-7-7-7-653----------------------------------------------------------------------]



Chorus

[---------------------------------------------------------]
[---------------------------------------------------------]
[---------------------------------------------------------]
[---0-6-0-8-0-9-0--------------------------------------]
[---0-4-0-6-0-7-0---9-8-6-5--------------------------]
[----------------------7-6-4-3--------------------------]


There u have it, another great GB song.  Enjoy playin this 1.





Comments


Popular Grey Box tabs & chords
Beer Man Tabs
Can Forget Tabs
Cant You See Tabs
Lithosphere Tabs
My Friend Alan Tabs
My Struggle 1 Tabs
The Dark Night Tabs
The Homeless Song Tabs
The Truth Tabs
Tommy 1 Tabs


Song lyrics



↑ Back to top | Tablatures and chords are parodies/interpretations of the original songs. You may use it for private study, scholarship, research or language learning purposes only
© 2014 AZChords.com Contact us | Privacy policy | DMCA | Add/correct tabs | Request tabs | Top 50 tabs