» » »

Fake Reality Tabs (ver.1)

Artists:  A B C D E F G H I J K L M N O P Q R S T U V W X Y Z # 

Fake Reality Tabs (ver.1)

Grey Box
Rating:
0/5 (0 votes)

Hard to play? Try these video lessons and learn fast.
                Intro 4x

[-----------------------------------------------------------------------]
[-----------------------------------------------------------------------]
[-----------------------------------------------------------------------]
[---0---6---0-8—0-9—0-------------------------------------------]
[------------------------------9-8-6-5--------------------------------]
[-----------------------------------------------------------------------]



Verse (clean)

[--------------------------------------------------------------------------------------------]
[--------------------------------------------------------------------------------------------]
[--------------------------------------------------------------------------------------------]
[---6-6-6-6-6-6-6-6-8-8-8-8-8-8-8-8-9-9-9-9-9-9-9-9------------------------------]
[---4-4-4-4-4-4-4-4-6-6-6-6-6-6-6-6-7-7-7-7-7-7-7-7------------------------------]
[--------------------------------------------------------------------------------------------]

[----------------------------------------------------------------------------------------------]
[----------------------------------------------------------------------------------------------]
[----------------------------------------------------------------------------------------------]
[----------------------------------------------------------------------------------------------]
[---9-9-9-9-8—7—5----------------------------------------------------------------------]
[---7-7-7-7-6—5—3----------------------------------------------------------------------]



Chorus

[---------------------------------------------------------]
[---------------------------------------------------------]
[---------------------------------------------------------]
[---0-6-0-8-0-9-0--------------------------------------]
[---0-4-0-6-0-7-0---9-8-6-5--------------------------]
[----------------------7-6-4-3--------------------------]


There u have it, another great GB song.  Enjoy playin this 1.
            
Hard to play? Try these video lessons and learn fast. | Correct




comments powered by Disqus
↑ Back to top | Tablatures and chords are parodies/interpretations of the original songs. You may use it for private study, scholarship, research or language learning purposes only