» » »

Grey Box, Dimentia Tabs (ver.1)

Artists:  A B C D E F G H I J K L M N O P Q R S T U V W X Y Z # 

Dimentia Tabs (ver.1)

Grey Box Tabs
Rating:
0/5 (0 votes)
Dimentia lessons Tabs too difficult? Try these video lessons and learn fast
                Here is the new grey box  song called DIMENTIA. (played in this order)

[--------------------------------------------------------------------------------]
[--------------------------------------------------------------------------------]
[--------------------------------------------------------------------------------]
[-8—8-8-8-8-8-8-8---9-9-9-9-9-9-9------------------------------------------------]
[-8—8—8—8—8—8—8—8---9-9-9-9-9-9-9------------------------------------------------]
[-6—6—6—6—6—6—6-7---7-7-7-7-7-7-7------------------------------------------------]

[-----------------------------------------------------------]
[-----------------------------------------------------------]
[-----------------------------------------------------------]
[-6—6—4—4—6—6—6—6-------------------------------------------]
[-4—4—2-2-4-4-4-4-------------------------------------------]
[-----------------------------------------------------------]
Play this x4


[----------------------------------------------]
[----------------------------------------------]
[----------------------------------------------]
[-12--------10----8----------------------------]
[-12--------10----8----------------------------]
[-10---------8----6----------------------------]
After playing this, play the part that is played x4
Then play this again, then x4 part again.


[----------------------------------------]
[----------------------------------------]
[----------------------------------------]
[-12-------8-------6-------4-------------]
[-12-------8-------6-------4-------------]
[-10-------6-------4-------2-------------]
After playing this, play x4 part again.


[------------------]
[------------------]
[-7----------------]
[-7----------------]
[-5----------------]
[------------------]
Ending: let ring
            

comments powered by Disqus
↑ Back to top | Grey Box Tabs for Dimentia. Lyrics for acoustic guitar and electric guitar. Tablatures and chords are parodies/interpretations of the original songs. You may use it for private study, scholarship, research or language learning purposes only