>
 >
Dimentia

Dimentia Guitar Tabs

Grey Box - Dimentia chords, tabs, tablatures, lyrics

Guitar lessons | Add/correct | Request | Top 50 tabs Artists:  A B C D E F G H I J K L M N O P Q R S T U V W X Y Z 0-9

Dimentia Guitar Tabs – Grey Box

CD, Sheet music, Poster

Do you like Dimentia? Share with your friends now
Tabs
Here is the new grey box  song called DIMENTIA. (played in this order)

[--------------------------------------------------------------------------------]
[--------------------------------------------------------------------------------]
[--------------------------------------------------------------------------------]
[-88-8-8-8-8-8-8---9-9-9-9-9-9-9------------------------------------------------]
[-88888888---9-9-9-9-9-9-9------------------------------------------------]
[-6666666-7---7-7-7-7-7-7-7------------------------------------------------]

[-----------------------------------------------------------]
[-----------------------------------------------------------]
[-----------------------------------------------------------]
[-66446666-------------------------------------------]
[-442-2-4-4-4-4-------------------------------------------]
[-----------------------------------------------------------]
Play this x4


[----------------------------------------------]
[----------------------------------------------]
[----------------------------------------------]
[-12--------10----8----------------------------]
[-12--------10----8----------------------------]
[-10---------8----6----------------------------]
After playing this, play the part that is played x4
Then play this again, then x4 part again.


[----------------------------------------]
[----------------------------------------]
[----------------------------------------]
[-12-------8-------6-------4-------------]
[-12-------8-------6-------4-------------]
[-10-------6-------4-------2-------------]
After playing this, play x4 part again.


[------------------]
[------------------]
[-7----------------]
[-7----------------]
[-5----------------]
[------------------]
Ending: let ring





Comments


Popular Grey Box tabs & chords
Beer Man Tabs
Can Forget Tabs
Cant You See Tabs
Fake Reality Tabs
Lithosphere Tabs
My Friend Alan Tabs
My Struggle Tabs
My Struggle 1 Tabs
The Homeless Song Tabs
The Truth Tabs


Song lyrics



↑ Back to top | Tablatures and chords are parodies/interpretations of the original songs. You may use it for private study, scholarship, research or language learning purposes only
© 2014 AZChords.com Contact us | Privacy policy | DMCA | Add/correct tabs | Request tabs | Top 50 tabs