» » »

Cant You See Tabs (ver.1)

Artists:  A B C D E F G H I J K L M N O P Q R S T U V W X Y Z # 

Cant You See Tabs (ver.1)

Grey Box
Rating:
0/5 (0 votes)

Hard to play? Try these video lessons and learn fast.
                Song - Can't You See?
Artist - Grey Box
Album - Deformer 
Guitarist(s) - Benji Stone & Rocky Konstantinou


Intro & Verses & Pre-Chorus
E|--------|------|-------|-----------|
B|--------|------|-------|-----------|
G|--------|--7---|--9----|--5--------|
D|---5----|--7---|--9----|--5--------|
A|---5----|--5---|--7----|--3--------|
E|---3----|------|-------|-----------|        


Chorus
E|------|-------|------|------|------|------|-------|              
B|------|-------|------|------|------|------|-------|              
G|------|---9---|------|--9---|------|--7---|-------|              
D|--9---|---9---|--9---|--9---|--7---|--7---|--9----|             
A|--9---|---7---|--9---|--7---|--7---|--5---|--9----|              
E|--7---|-------|--7---|------|--5---|------|--7----|          


Bridge
E|------|------|------|              
B|------|------|------|              
G|--2---|------|------|              
D|--2---|--2---|--5---|             
A|--0---|--2---|--5---|              
E|------|--0---|--3---|
            
Hard to play? Try these video lessons and learn fast. | Correct




comments powered by Disqus
↑ Back to top | Tablatures and chords are parodies/interpretations of the original songs. You may use it for private study, scholarship, research or language learning purposes only