» » »

Work Hard Play Harder Tabs (ver.1)

Artists:  A B C D E F G H I J K L M N O P Q R S T U V W X Y Z # 

Work Hard Play Harder Tabs (ver.1)

Gretchen Wilson
Rating:
0/5 (0 votes)

Hard to play? Try these video lessons and learn fast.
                #   If you like this tab, please rate it above.  Thank you.


Intro
1st Guitar
|---------------------------------------------------------------------------------------|
|-----6/7-7-7-6/7-6/7--7-7-6/7-6/7--7-7-6/7-6/7--7-7-6/7-6/7--7-7-6/7-6/7--7-7-6/7-6/7--|
|-----6/7-7-7-6/7-6/6--7-7-6/7-6/7--7-7-6/7-6/7--7-7-6/7-6/7--7-7-6/7-6/7--7-7-6/7-6/7--|
|---------------------------------------------------------------------------------------|
|---------------------------------------------------------------------------------------|
|---------------------------------------------------------------------------------------|
2nd Guitar
E|-------------------------------------------------------------------------------------------|
B|-------------------------------------------------------------------------------------------|
G|-------------------------------------------------------------------------------------------|
D|---------------------------------77-7--------------77-7--------------77-7--------------77-7|
A|---------------------023---------55-5--023---------55-5--023---------55-5--023---------55-5|
D|-------------------------235-320------------235-320----------235-320-----------235-320-----|
                                                   Bass In
            D5
I'm working double shift on Monday, Tuesday I get up before dawn

Wednesday pourin' coffee, Thursday night I'm tendin' the bar
          B5                    C5
Well when Friday finally rolls around
       B5                            G5
I call up my rowdy friends and we're honky tonk bound

CHORUS
        D5           G5            C5                 D5
I work hard, I play harder, I'm a good time American daughter
   D5         G5            C5/(C B A G F# G A D) D5
Redneck, Blue collar, and I party down to my last dollar
        C5           B5            Bb5 
I work hard, I work hard, I work hard, I play 

E|---------------------------------|
B|---------------------------------|
G|---------------------------------|
D|-----------77-7--------------77-7|
A|-3---------55-5--023---------55-5|
D|---235-320------------235-320----|
  harder

            D5
I don't waste my time on manicures and spray on tans
            D5
and I don't pay no ever mind to the callous' I've worn on my hands
          B5                    C5
You know the people can't understand how 
       B5                            G5
I'm the first to clock in but the last to pass out

CHORUS

Yeah, Yeah, Yeah

2nd Guitar
E|-------------------------------------------------00-0----|
B|-------------------------------------------------22-2----|
G|-------------------------------------------------22-2----|
D|--------------77-7-------------77-7--------------22-2----|
A|--023---------55-5-023---------55-5--023-----320-00-0----|
D|------235-320----------235-320-----------235-320---------|

1st Guitar
|---------------------------------------------------------------------------------------|
|-----6/7-7-7-6/7-6/7--7-7-6/7-6/7--7-7-6/7-6/7--7-7-6/7-6/7--7-7-6/7-6/7--7-7-6/7-6/7--|
|-----6/7-7-7-6/7-6/6--7-7-6/7-6/7--7-7-6/7-6/7--7-7-6/7-6/7--7-7-6/7-6/7--7-7-6/7-6/7--|
|---------------------------------------------------------------------------------------|
|---------------------------------------------------------------------------------------|
|---------------------------------------------------------------------------------------|
2nd Guitar
E|-------------------------------------------------------------------------------------------|
B|-------------------------------------------------------------------------------------------|
G|-------------------------------------------------------------------------------------------|
D|-------------------------------------------------------------------------------------------|
A|-0---3-5---3-5---3-0----0---3-5---3-5---3-0------------------------------------------------|
D|-0---3-5---3-5---3-0----0---3-5---3-5---3-0------------------------------------------------|
I work hard I play harder, I'm a good time American daughter
Redneck, Blue collar, and I party down to my last daughter
        D5           G5            C5                 D5
I work hard I play harder, I'm a good time American daughter
   D5         G5            C5/(C B A G F# G A D) D5
Redneck, Blue collar, and I party down to my last daughter
        C5           B5            Bb5 
I work hard, I work hard, I work hard, 
        C5           B5            Bb5 
I work hard, I work hard, I work hard, 
2nd Guitar
E|-------------------------------|    |------------|
B|-------------------------------|    |------------|
G|-------------------------------|    |------------|
D|--------------------------77-7-|    |------------|
A|---------------023--------55-5-|    |-023-------0|
D|-------------------235-320-----|x3  |-----235-320|
N/C
I play harder                                 Yeah
            
Hard to play? Try these video lessons and learn fast. | Correct




comments powered by Disqus
↑ Back to top | Tablatures and chords are parodies/interpretations of the original songs. You may use it for private study, scholarship, research or language learning purposes only