» » »

Gretchen Wilson, There's A Place In Whiskey (w/ Riffs) Chords (ver.1)

Artists:  A B C D E F G H I J K L M N O P Q R S T U V W X Y Z # 

There's A Place In Whiskey (w/ Riffs) Chords (ver.1)

Gretchen Wilson Tabs
 Rating:
4/5 (4 votes)
There's A Place In Whiskey (w/ Riffs) lessons Tabs too difficult? Try these video lessons and learn fast
                

Riff 1:

-------------------------------------------------------
----------4-----------6-----------7--------------------
--3/5-5---3---3/5-5---5---3/5-5---6---------3----------
--3/5-5-------3/5-5-------3/5-5---------3/5---5-3\1----
--1/3-3-------1/3-3-------1/3-3---------------------3--
-------------------------------------------------------


Riff 2:

----------------------
----------------------
--10-10-8---10-10-8---
--10-10-8---10-10-8---
----------------------
----------------------

Intro: Riff 1 x4


C
There's a place in the whiskey

Where I don't give a damn

I just love everybody

And everybody loves who I am
          F
Bartender hit me, wont you get me
Eb      D     C#     C
To that place in the whiskey

Riff 1

C
Yeah, there's a place in the whiskey

A few more shots from here

Where the spirits hit me

And all my troubles disappear
          F
Bartender hit me, wont you get me
Eb      D     C#     C
To that place in the whiskey

Riff 2

             F
Well, you'll know I'm there

Where you hear me yell that
                        C
Hillbilly high lonesome sound

Riff 2

F
Rasin' hell with a rebel yell
     D                               G
Just turn that music up if I get too loud

Bring me another round, yeah


          C
There's a place in the whiskey

Where i like to smoke

Everything you got, baby

I got the fire down below
               F
Well, let just face it

We're both wasted
Eb      D     C#     C
In that place in the whiskey

Riff 2

Solo:

Ab F C  Ab F C  Ab Bb G


--3-2-1-2-1-0-1-0---0-----------
------------------4---4-3-1-----
--------------------------------
--------------------------------
--------------------------------
--------------------------------

                C
Well, there's a place in the whiskey

Where nothing else makes sense

But to party, party, party, party, party, party, party

Till' all my moneys spent
          F
Bartender hit me

Wont you get me
Eb      D     C#     C
To that place in the whiskey

Riff 2

          F 
Bartender hit me

Who's coming with me
Eb
to that place in the whiskey

Riff 1 
            
Submit corrections

comments powered by Disqus
↑ Back to top | Gretchen Wilson Chords for There's A Place In Whiskey (w/ Riffs). Lyrics for acoustic guitar and electric guitar. Tablatures and chords are parodies/interpretations of the original songs. You may use it for private study, scholarship, research or language learning purposes only