» » »

Gretchen Wilson, Redneck - Woman Tabs (ver.1)

Artists:  A B C D E F G H I J K L M N O P Q R S T U V W X Y Z # 

Redneck - Woman Tabs (ver.1)

Gretchen Wilson Tabs
Rating:
0/5 (0 votes)
Redneck - Woman lessons Tabs too difficult? Try these video lessons and learn fast
                Gretchen Wilson  -  Redneck Woman  (tab)



All this played with capo on 2nd fret.


Use Palamino's submission for the chords, because its pretty accurate.
No tab for chorus because its just a basic blues shuffle.
Any other little riffs are just repeated from 1st verse.. should be easy
for you to figure out using the tab. :-)


***************************************************************************


INTRO

           E

E-----------------------------------------------------------------|
B-----------------------------------------------------------------|
G-----------------------------------------------------------------|
D-----------2-0-2-2-0-0h2-2-0-2-2-0-0h2-2-0-2-2-0-0h2-2-0-0-2-2---|
A--0h2p0----2-0-2-2-0-0h2-2-0-2-2-0-0h2-2-0-2-2-0-0h2-2-0-0-2-2---|
E-------3b-0-----0-------0-----0-------0-----0-------0------0-0---|



PICKING FOR 1st VERSE



   PM...........        PM.........       PM..........
E------------------------------------------------------------------------
B------------------------------------------------------------------------
G------------------------------------------------------------------------
D-------------------2------------------2------------------------2-0-0-0--
A--1/2-2-4-4-2-2-2h4----2-2-4-4-2-2-2h4----2-2-4-4-2-2-0h2p0----2-0-0-0--
E--0---0-0-0-0-0-----3b-0-0-0-0-0-0-----3b-0-0-0-0-0-0------3b-0-2-3-4---


   PM...........        PM.......                 PM.....        PM.......
E-------------------------------------------------------------------------------
B-------------------------------------------------------------------------------
G-------------------0-----------------------------------------------------------
D--1/2-2-4-4-5-5-3/4----2-2-4-4-2-0h2p0---------2------------2------------------
A--0---0-0-0-0-0-----3b-0-0-0-0-0------0h2p0----2-2-2-2-2-2h4----2-2-2-2-2--0-1-
E-------------------------------------------3b-0--0-0-0-0-----3b-0-0-0-0-0-0----



E------------------------------------|
B---0---0-0----0--0-0-----2----3-----|
G---1--1---1---1-1-1-1--------0------|
D---2----------2------2--2-2/4--7\---|
A--2--------1/2---------0-------7\---|
E-------------------------------5\---|



ENDING RIFF


E----------------------0---|
B----------------------0---|
G--0h2p0---------------1---|
D-------0h2p0----------2---|
A------------0h2p0-----2---|
E-----------------3b-0-0---|

            

comments powered by Disqus
↑ Back to top | Gretchen Wilson Tabs for Redneck - Woman. Lyrics for acoustic guitar and electric guitar. Tablatures and chords are parodies/interpretations of the original songs. You may use it for private study, scholarship, research or language learning purposes only