» » »

He Ain't Even Cold Yet Tabs (ver.1)

Artists:  A B C D E F G H I J K L M N O P Q R S T U V W X Y Z # 

He Ain't Even Cold Yet Tabs (ver.1)

Gretchen Wilson
Rating:
0/5 (0 votes)

Hard to play? Try these video lessons and learn fast.
                INTRO:
	C2			C2
E-------------3-------------------3------------------
B--------1---------1---------1---------1-------------
G----------0-----0---0-----------0---0----0----------
D------2------------------2--------------------------
A----3------------------3----------------------------
E----------------------------------------------------

VERSE:
	      C2	      F
E-------------3---------------------1----------------
B--------1---------1-----------1---------------------
G----------0-----0---0-----------2----2--------------
D------2--------------------3------------------------
A----3--------------------3--------------------------
E----------------------------------------------------

	C2			C2
E-------------3-------------------3------------------
B--------1---------1---------1----------1------------
G----------0-----0---0-----------0----0----0---------
D------2------------------2--------------------------
A----3------------------3----------------------------
E----------------------------------------------------

	G			G
E--------------3-------------------3-----------------
B---------3---------3---------3---------3------------
G-----------0-----0---0----------0----0---0----------
D------0-------------------0-------------------------
A----2-------------------2---------------------------
E----------------------------------------------------

	C2			C2
E-------------3-------------------3------------------
B--------1---------1---------1---------1-------------
G----------0-----0---0-----------0--0----0-----------
D------2------------------2--------------------------
A----3------------------3----------------------------
E----------------------------------------------------

               (REPEAT)

CHORUS:
	       F	        F
E--------------1---------------------1----------------
B--------1----------1-----------1---------------------
G----------2-----2-----2-----------2----2-------------
D-----3-----------------------3-----------------------
A----3--------------------3--------------------------
E----------------------------------------------------

	C			C
E-------------0-------------------0------------------
B--------1---------1---------1---------1-------------
G----------0-----0---0-----------0----0--0-----------
D------2------------------2--------------------------
A----3------------------3----------------------------
E----------------------------------------------------

	G			G
E--------------3-------------------3-----------------
B---------3---------3----------3---------3-----------
G-----------0-----0---0----------0-----0---0---------
D------0-------------------0-------------------------
A----2-------------------2---------------------------
E----------------------------------------------------


	C			C
E-------------0--------------------0-----------------
B--------1---------1---------1---------1-------------
G----------0-----0---0-----------0----0----0---------
D------2------------------2--------------------------
A----3------------------3----------------------------
E----------------------------------------------------

       C/F			F			
E-------------1------------------1-------------------
B--------1---------1---------1--------1--------------
G----------2-----2---2---------2---2----2------------
D------2------------------3--------------------------
A----3------------------3----------------------------
E----------------------------------------------------


	C			C			
E-------------0--------------------0-----------------
B--------1---------1---------1---------1-------------
G----------0-----0---0-----------0----0----0---------
D------2------------------2--------------------------
A----3------------------3----------------------------
E----------------------------------------------------

	G			G
E--------------3-------------------3-----------------
B---------3---------3----------3-------3-------------
G-----------0-----0---0----------0---0---0-----------
D------0-------------------0-------------------------
A----2-------------------2---------------------------
E----------------------------------------------------


	C			C			
E-------------0--------------------0-----------------
B--------1---------1---------1---------1-------------
G----------0-----0---0-----------0----0----0---------
D------2------------------2--------------------------
A----3------------------3----------------------------
E----------------------------------------------------

            
Hard to play? Try these video lessons and learn fast. | Correct




comments powered by Disqus
↑ Back to top | Tablatures and chords are parodies/interpretations of the original songs. You may use it for private study, scholarship, research or language learning purposes only