» » »

Every Moment Tabs (ver.1)

Artists:  A B C D E F G H I J K L M N O P Q R S T U V W X Y Z # 

Every Moment Tabs (ver.1)

Gretchen
Rating:
0/5 (0 votes)

Hard to play? Try these video lessons and learn fast.
                -------------------------------------------------------------------------------
-------------------------------------------------------------------------------

Tuning:DADGBe

Intro:
e|---------------------------5----|
B|---------------------------8----|
G|-------7/9\7-------7/9\5---7----| (Played twice)
D|---0-----------0-----------5----|
A|---0---5/7\5---0---5/7\5---5----|
D|---0-----------0-----------5----|

Verse:
e|---0---0---5--------0---0---5---|
B|---3---3---8--------3---3---8---|
G|---2---2---7--------2---2---7---| (Played twice)
D|-----------5----------------5---|
A|-----------5----------------5---|
D|-----------5----------------5---|

e|---7---7---5------|
B|--10--10---8------|
G|---9---9---7------|
D|---7---7---5------|
A|---7---7---5------|
D|---7---7---5------|

Pre-Chorus Tag and Chorus:
e|------------------------------------------5-------------------|
B|------------------------------------------8-------------------|
G|---9---6---7----------7/9\5-------7/9\5---7-------------------|
D|------------------0-----------0-----------5-------------------|
A|---7---4---5------0---5/7\5---0---7/9\5---5---10--9--7--4h5---|
D|------------------0-----------0-----------5-------------------|

Bridge:
e|----------------------|
B|----------------------|
G|----------------------|
D|---12---11---8---11---|
A|----9----7---5----7---|
D|----9----7---5----7---|

End Tag: (Acoustic)
e|----0----0----5-------|
B|----3----3----8-------|
G|----2----2----7-------|
D|----0----0----5-------|
A|----0----0----5-------|
D|----0----4----5-------|


| /  slide up
| \  slide down
| h  hammer-on
| p  pull-off
| ~  vibrato
| +  harmonic
| x  Mute note
===============================================================================
            
Hard to play? Try these video lessons and learn fast. | Correct




comments powered by Disqus
↑ Back to top | Tablatures and chords are parodies/interpretations of the original songs. You may use it for private study, scholarship, research or language learning purposes only