>
 >
Breathe

Breathe Guitar Tabs

Gretchen - Breathe chords, tabs, tablatures, lyrics

Guitar lessons | Add/correct | Request | Top 50 tabs Artists:  A B C D E F G H I J K L M N O P Q R S T U V W X Y Z 0-9

Breathe Guitar Tabs – Gretchen

CD, Sheet music, Poster

Do you like Breathe? Share with your friends now
Tabs
Tuning: Drop D

Intro X2
e|----------------------------|
B|----------------------------|
G|----------------------------|
D|-11111--44444--99999--66666-|
A|-11111--44444--99999--66666-|
D|-11111--44444--99999--66666-|

other guitar during 2nd time: D|-1-1-1-1/3-4-4-4-4/6-9-9-9-9/666\4~6\-|


Verse X2
e|----------------------------|
B|----------------------------|
G|----------------------------|
D|-11111--44444--99999--66666-|
A|-11111--44444--99999--66666-|
D|-11111--44444--99999--66666-|
   .....  .....  .....  .....

               other guitar: G|-8-8-|

Pre-Chorus X2
e|----------------------|----|
B|----------------------|----|
G|----------------------|----|
D|-1~----4~----9~----6~-|*6~~|
A|-1~----4~----9~----6~-|*6~~|
D|-1~----4~----9~----6~-|*6~~|
                               *=play the 2nd time
Pre-Chorus guitar2 X2
e|-----------------------|-----|
B|-----------------------|-----|
G|-8~----11~--16~----13~-|*13~~|
D|-8~----11~--16~----13~-|*13~~|
A|-6~-----9~--14~----11~-|*11~~|
D|-----------------------|-----|

Chorus X2
e|---------------------------------------------------------------------|
B|---------------------------------------------------------------------|
G|---------------------------------------------------------------------|
D|-9999999999999999-6666666666666666-9999999999999999-1111111111111111-|
A|-9999999999999999-6666666666666666-9999999999999999-1111111111111111-|
D|-9999999999999999-6666666666666666-9999999999999999-1111111111111111-|

e|--------------------|
B|--------------------|
G|--------------------|
D|-1~----4~----9~~----|
A|-1~----4~----9~~----|
D|-1~----4~----9~~----|
IntroX1
VerseX2
Pre-ChorusX2
ChorusX2

Intro X2

Other guitar:
e|--------------------------------------------------------|
B|--------------------------------------------------------|
G|--------------------------------------------------------|
D|-1-1-1-1-1/9998-6-4--6/4/6-1-1-1-1-1/9998/11-4-666461---|
A|--------------------------------------------------------|
D|--------------------------------------------------------|

solo

e|------------------|
B|------------------|
G|------------------|
D|-1----4----9----6-|
A|-1----4----9----6-|
D|-1----4----9----6-|

e|-----------------------------------------------------------------------|
B|-----------------------------------------------------------------------|
G|-----------------------------------------------------------------------|
D|----------------------------------------------------|-6666666666666666-|
A|-2222222222222222/6666666666666666-2222222222222222-|-6666666666666666-|
D|----------------------------------------------------|-6666666666666666-|
   ................................. .................  ................
                                                                                         
                                          >>>>>>>>>>>>>>>>>
Chorus3
e|-----------------------------------|
B|-----------------------------------|
G|-----------------------------------|
D|-2222222222222222-6666666666666666-|
A|-2222222222222222-6666666666666666-|
D|-2222222222222222-6666666666666666-|


X2
e|------------------------------------|---------------------|
B|------------------------------------|---------------------|
G|------------------------------------|---------------------|
D|-11111111-44444444-9999999999999999-|-1~----4~----9~~~----|
A|-11111111-44444444-9999999999999999-|-1~----4~----9~~~----|
D|-11111111-44444444-9999999999999999-|-1~----4~----9~~~----|

~=let ring
.=palm mute
/=slide up
\=slide down





Comments


Popular Gretchen tabs & chords
Let It Go Chords
Don't Wanna Be Tabs
Every Moment Tabs
Zion Tabs
Let It Go Ukulele


Song lyrics



↑ Back to top | Tablatures and chords are parodies/interpretations of the original songs. You may use it for private study, scholarship, research or language learning purposes only
© 2014 AZChords.com Contact us | Privacy policy | DMCA | Add/correct tabs | Request tabs | Top 50 tabs