» » »

Green River Ordinance, Come On Tabs (ver.1)

Artists:  A B C D E F G H I J K L M N O P Q R S T U V W X Y Z # 

Come On Tabs (ver.1)

Green River Ordinance Tabs
 Rating:
4/5 (4 votes)
Come On lessons Tabs too difficult? Try these video lessons and learn fast
1
                Come on by Green River Ordinance

First tab.
This is how I play it.
Figure out the strumming.

Capo 2nd
Standard Tuning

Verse 1:

Everywhere I look I see you're smilin' Face
-0---------------------0---------------------|
-3---------------------3---------------------|
-0---------------------0---------------------|
-5---------------------4---------------------|
-4---------------------5---------------------|
-0---------------------0---------------------|
PM                    PM

Every song I sing I sing in hopes you're listening
-0------------------------------------------0----|
-1------------------------------------------1----|
-0------------------------------------------0----|
-2------------------------------------------0----|
-3------------------------------------------0----|
-0------------------------------------------0----|
PM                                         PM

When the tables turn I learn from my mistakes
-0----------------------------0--------------|
-3----------------------------3--------------|
-0----------------------------0--------------|
-5----------------------------4--------------|
-4----------------------------5--------------|
-0----------------------------0--------------|
PM                           PM

I'm only human here after all oh aren't we all
-0-----------------------------------------0---|
-1-----------------------------------------1---|
-0-----------------------------------------0---|
-2-----------------------------------------0---|
-3-----------------------------------------0---|
-0-----------------------------------------0---|
PM                                        PM

Pre-Chorus:
Don't walk away Don't say goodbye
-0-------------------------------|
-0-------------------------------|
-0-------------------------------|
-2-------------------------------|
-2-------------------------------|
-0-------------------------------|

Don't leae me here no not tonight
-3------------------------------|
-3------------------------------|
-0------------------------------|
-2------------------------------|
-3------------------------------|
-0------------------------------|

Don't walk away like you did the other time
-3---------------------------3-------------x--|
-3---------------------------3-------------x--|  Do a muting sound here at
-0---------------------------0-------------x--|  the end.
-0---------------------------0-------------x--|
-0---------------------------2-------------x--|
-3---------------------------3-------------x--|

Chorus:

Come on Come on
-0------3------|
-1------3------|
-0------0------|
-2------0------|
-3------0------|
-0------3------|

If you want to make it right we can make it right
-0---------------------------0-------------------|
-0---------------------------3-------------------|
-0---------------------------0-------------------|
-2---------------------------4-------------------|
-2---------------------------5-------------------|
-0---------------------------0-------------------|

I said its been too long to let go now hear me out
-0----------------3----------------0------------0-|
-1----------------3----------------0------------3-|
-0----------------0----------------0------------0-|
-2----------------0----------------2------------4-|
-3----------------0----------------2------------5-|
-0----------------3----------------0------------0-|

Come on Come on
-0------3------|
-1------3------|
-0------0------|
-2------0------|
-3------0------|
-0------3------|

If you want to make it right we can make it right
-0---------------------------0-------------------|
-0---------------------------3-------------------|
-0---------------------------0-------------------|
-2---------------------------4-------------------|
-2---------------------------5-------------------|
-0---------------------------0-------------------|

I said I won't be here when the morning comes
-0-------------3---------------0----------0-|
-1-------------3---------------0----------3-|
-0-------------0---------------0----------0-|
-2-------------0---------------2----------4-|
-3-------------0---------------2----------5-|
-0-------------3---------------0----------0-|

Verse 2:
          Even with you're eyes closed do you hear my voice
-3-------------------------------------3-------------------|
-3-------------------------------------3-------------------|
-0-------------------------------------2-------------------|
-0-------------------------------------0-------------------|
-0-------------------------------------0-------------------|
-3-------------------------------------2-------------------|

Carrying the weight of all we love and left behind
-3----------------------------------------------3-|
-3----------------------------------------------3-|
-0----------------------------------------------2-|
-2----------------------------------------------0-|
-2----------------------------------------------0-|
-0----------------------------------------------2-|

Love's so unpredictable have we been blind
-3----------------------3-------------------|
-3----------------------3-------------------|
-0----------------------2-------------------|
-0----------------------0-------------------|
-0----------------------0-------------------|
-3----------------------2-------------------|

Im only human here after all oh aren't we all
-3------------------------------------------3-|
-3------------------------------------------3-|
-0------------------------------------------2-|
-2------------------------------------------0-|
-2------------------------------------------0-|
-0------------------------------------------2-|

Pre-Chorus

Chorus

Bridge:
-0-------------3---------------0----------0-|
-1-------------3---------------0----------3-|
-0-------------0---------------0----------0-|
-2-------------0---------------2----------4-|
-3-------------0---------------2----------5-|
-0-------------3---------------0----------0-|

I just wanna be the hand you hold when you're cryin'
-0-----------3---------------0--------------------0-|
-1-----------3---------------0--------------------3-|
-0-----------0---------------0--------------------0-|
-2-----------0---------------2--------------------4-|
-3-----------0---------------2--------------------5-|
-0-----------3---------------0--------------------0-|

I just wanna be the voice that tells you it'll be alright and
-0-----------3-----------------0----------------------------0-|
-1-----------3-----------------0----------------------------3-|
-0-----------0-----------------0----------------------------0-|
-2-----------0-----------------2----------------------------4-|
-3-----------0-----------------2----------------------------5-|
-0-----------3-----------------0----------------------------0-|

When you're world is coming down and you're nowhere to be find
-0-----------------3--------------0------------------0--------|
-1-----------------3--------------0------------------3--------|
-0-----------------0--------------0------------------0--------|
-2-----------------0--------------2------------------4--------|
-3-----------------0--------------2------------------5--------|
-0-----------------3--------------0------------------0--------|

Well ill be here, well ill be here, well ill be here
-0----------------3-----------------0---------------|
-1----------------3-----------------0---------------|
-0----------------0-----------------0---------------|
-2----------------0-----------------2---------------|
-3----------------0-----------------2---------------|
-0----------------3-----------------0---------------|

For ya
-0----|
-3----|
-0----|
-4----|
-5----|
-0----|

Chorus

Outro:

Come on Come on oh
-0------3----0---0-|
-1------3----0---3-|    x2 then end with a
-0------0----0---0-|    a strum on C.
-2------0----2---4-|
-3------0----2---5-|
-0------3----0---0-|
            
Submit corrections

comments powered by Disqus
↑ Back to top | Green River Ordinance Tabs for Come On. Lyrics for acoustic guitar and electric guitar. 1 Tablatures and chords are parodies/interpretations of the original songs. You may use it for private study, scholarship, research or language learning purposes only