» » »

Green River, Unwind Tabs (ver.2)

Artists:  A B C D E F G H I J K L M N O P Q R S T U V W X Y Z # 

Unwind Tabs (ver.2)

Green River Tabs
 Rating:
4/5 (4 votes)
Unwind lessons Tabs too difficult? Try these video lessons and learn fast
1
                
This tab was originally by Daniel Widegren
I just added in the solos

Intro:
|--------------------------------------------------------------------------|
|2b--------------------2b---------------------2b--------------------2b-----|
|2b---2---0\1----------2b---2---0\1-----------2b---2---0\1----------2b--2--|
|2b--------------------2b---------------------2b--------------------2b-----|
|--------------------------------------------------------------------------|
|---------------3--0------------------3--0-------------------3--0----------|


--------4------3------2------------------------|
-----------------------------------------------|
-0---\4---4-/3---3-/2----1---1--2--3--4----/12-|
-----------------------------------------------|
-----------------------------------------------|
-----------------------------------------------|

Intro verse, Blues-tempo("..come on over to my place...")

This is the rhythm part

Palm mute every chord/tone exept the * chord and the hammers on(2\4).
|--------------------------------------------------------------------------|
|--------------------------------------------------------------------------|
|--------------------------------------------------------------------------|
|-----------2-----------------2-----------------2-----------------------2--|
|-2-2--2\4--2--2-2--2-2--2\4--2--2-2--2-2--2\4--2--2-2--2-2-4-2-5-2-2\4-2--|
|-0-0--0----0--0-0--0-0--0----0--0-0--0-0--0----0--0-0--0-0-0-0-0-0-0---0--|
            *                 *                 *                       *

--------|
--------|
--------|
------2-|
-2\4--2-|
-0----0-|
Played over chords
played slow with Bluesy feel

|---------------------------------------------------------12---------------|
|-10B-8--545-10b10B-8-545--------8---8---10b-8---8-10-10B-----15-13-12-----|
|---------------------------7-9-----9---9------9---------------------------|
|------------------------7-9-----------------------------------------------|
|--------------------------------------------------------------------------|
|--------------------------------------------------------------------------|

|--------------12-----15---------------------------------------------------|
|-10B-8-----11h12(x6)-----17-15-13--10B-8----------------------------------|
|-------9---------------------------------9--------------------------------|
|--------------------------------------------------------------------------|
|--------------------------------------------------------------------------|
|--------------------------------------------------------------------------|

Solo Ends: Play rythmn for a couple measures then this!
Listen for the exact amount of times for each
|--------------------------------------------------------------------------|
|-------------------------------12-----------------------------------------|
|--8h9(about8x)--14Brepeat--14B(hold bend)-x6-14B(fullBend)----------------|
|--------------------------------------------------------------------------|
|--------------------------------------------------------------------------|
|--------------------------------------------------------------------------|


Verse, Fast rock-tempo:
|-----------------------------------------|
|-----------------------------------------|
|-----------------------------------------|
|------0----------0-----0-----------------|
|--4/2----4/2/4/2---4/2----4-2--------2---|
|0------------------------------54545---5-|


Chorus, same tempo("..unwind, unwind..":
|-------------------------------|
|-------------------------------|
|4-4----------4--5-5---------5-5|
|4-4--4--5-5--4--5-5----3-3--5-5|
|2-2--4--5-5--2--3-3----3-3--3-3|
|-----2--3-3------------1-1-----|

The last chorus/choruses is like this.
|---------------------|
|---------------------|
|4-------5---------5-5|
|4---5---5---3-3---5-5|
|2---5---3---3-3---3-3|
|----3-------1-1------|

Solo 2

|--------------------------------------------------------------------------|
|--------------------------------------------------------------------------|
|--/4-4-4/3---------4-5-7-7B-7-5-7-5-4----------------4~-------------------|
|-----------/6-6~-------------------------------3-5------------------------|
|-----------------------------------------1-3-5----------------------------|
|---------------------------------------3----------------------------------|

|--------------------------------------------10-15-13-12-10-(x2)-----------|
|--------------------------------------------------------------------------|
|--/4-4-4/3---------4-5-7-7B-9B-9p79~--------------------------------------|
|-----------/6-6~-------------------/17-17B--------------------------------|
|--------------------------------------------------------------------------|
|--------------------------------------------------------------------------|

|----------------------10-8-7h87--5h75-3-5---------------------------------|
|-15~-13~-12~-13~-15~------------------------------------------------------|
|--------------------------------------------------------3-5B-5-3--0---44--|
|----------------------------------------------------3-5-------------33----|
|----------------------------------------------1-3-5-----------------------|
|--------------------------------------------3-----------------------------|
This is the last riff, it is played at the end of the middle and at the end

Rhythm part
|--------------------------------------------|
|-12--12-12---12-----------------------------|
|-12--12-12---12-----------------------------|
|-12--12-12---12-----------------------------|
|--------------7-7-7-7-7-7-7-7-7-7-7-7-7-7-7-|
|--------------0-0-0-0-0-0-0-0-0-0-0-0-0-0-0-|

Lead part:
|----------------------------------------|
|-12--12-12---12--9--7\9--9--7\9--9--7\9-|
|-12--12-12---12--9--7\9--9--7\9--9--7\9-|
|-12--12-12---12-------------------------|
|----------------------------------------|
|----------------------------------------|

the end solo is in the key of G Major the solo is sketchy and not worth tabbing improv 
these scales

|----------------------------6-8/10----------------------------------------|
|-----------------------6-8------------------------------------------------|
|---------------3-5-7------------------------------------------------------|
|----------3-5-------------------------------------------------------------|
|---1-3-5------------------------------------------------------------------|
|-3------------------------------------------------------------------------|
I like to slide the notes with this scale thats an extended scale
heres a regular G Major

|------------------------------------5-7-8---------------------------------|
|-----------------------------5-7-8----------------------------------------|
|----------------------4-5-7-----------------------------------------------|
|---------------4-5-7------------------------------------------------------|
|-------3-5-7--------------------------------------------------------------|
|-3-5-7--------------------------------------------------------------------|
            
Submit corrections

comments powered by Disqus
↑ Back to top | Green River Tabs for Unwind. Lyrics for acoustic guitar and electric guitar. 1 Tablatures and chords are parodies/interpretations of the original songs. You may use it for private study, scholarship, research or language learning purposes only