» » »

This Town Tabs (ver.1)

Artists:  A B C D E F G H I J K L M N O P Q R S T U V W X Y Z # 

This Town Tabs (ver.1)

Green River
Rating:
5/5 (2 votes)

Hard to play? Try these video lessons and learn fast.
                

Intro:
e:-----------------------------------------|
b:-----------------------------------------|
g:-----------------------------------------|
d:2----------------------------------------|
a:2----------------------------------------|
E:0----------------------------------------|
feedback fade up

Riff1:
e:------------------------------------|
b:------------------------------------|
g:--------7-------------------5-7-0---|  x 8
d:9-9-5-7---7-5-------9-9-5-7---------|
a:7-7-----------------7-7-------------|
E:------------------------------------|


Riff2:
e:----------------------------------------------------|
b:----------------------------------------------------|
g:9-9-9-9--8-8-7-7--------------7---------------5-7-0-|
d:9-9-9-9--8-8-7-7----9-9-5-7-5---7-----9-9-5-7-------|
a:7-7-7-7--6-6-5-5----7-7---------------7-7-----------| x 6
E:----------------------------------------------------|

Riff3:
e:---------------------------------------------------------|
b:---------------------------------------------------------|
g:---------------------------------------------------------|
d:12-12-x-12-12-x-9-9-x-9-9-x-7-7-x-7-7-x-1010--9-9-x  x 2-|
a:10-10-x-10-10-x-7-7-x-7-7-x-5-5-x-5-5-x-8-8-x-7-7-x------|
E:---------------------------------------------------------|

riff2

riff3

break down

solo goes a bit like this
e:------------------------------------------------------------------|
b:------------------------------------------------------------------|
g:15(mega)15--15(bend)15--15(bend)15--15(bend)15-15-14-12-10--------|
d:------------------------------------------------------------------|
a:------------------------------------------------------------------|
E:------------------------------------------------------------------|

e:------------------------------------------------|
b:------------------------------------------------|
g:10-10-10-11-10-10-10-12-10-10-10-15-14-12-14-12-| x 2
d:------------------------------------------------|
a:------------------------------------------------|
E:------------------------------------------------|

e:--------------------------------------|
b:--------------------------------------|
g:14-15(bend) then pluck while releasing
d:--------------------------------------|
a:--------------------------------------|
E:--------------------------------------|

then some little fret wank after.

then riff1

riff2

twice as much riff3

riff1

END!

and there you go, this town..
            
Hard to play? Try these video lessons and learn fast. | Correct




comments powered by Disqus
↑ Back to top | Tablatures and chords are parodies/interpretations of the original songs. You may use it for private study, scholarship, research or language learning purposes only