» » »

P.C.C Tabs (ver.1)

Artists:  A B C D E F G H I J K L M N O P Q R S T U V W X Y Z # 

P.C.C Tabs (ver.1)

Green River
Rating:
0/5 (0 votes)

Hard to play? Try these video lessons and learn fast.
                ok Here is how it goes

This is what you play during bass line          h= hammer
                            then you play this when guitar comes in
-------12h13----------------------------------------------------------------------|
----------------------------------------------------------------------------------|
------------------------------------9----5--5--5--5-------------------------------|
--------------------------2--2--2---9----5--5--5--5----4-4--4--4---5--5--5--5-----|
--------------------------2--2--2---7----3--3--3--3----4-4--4--4---5--5--5--5-----|
--------------------------0--0--0----------------------2-2--2--2---3--3--3--3-----|

During the third time play this riff

D--5-5-5-3-0--------------------------|
A-------------------------------------|
E-------------------------------------|


Chorus
         No memory of anything.........
-------------------------------------------------------------------------|
-------------------------------------------------------------------------|
---------9-9-9-9------5--5--5----7-7-7-----------------------------------|
---------9-9-9-9------5--5--5----7-7-7----7-7-7-7--5---4-----------------|
---------7-7-7-7------3--3--3----5-5-5----7-7-7-7--5---4-----------------|
----0--------------0----------------------5-5-5-5--3---2-----------------|


2nd part of chorus

------------------------------------------------------------------------|
------------------------------------------------------------------------|
------------------------------------------------------------------------|
---2--2--2--2----4--4--4--4------9--9--9--9-----7--7--7--7----5--4------|
---2--2--2--2----4--4--4--4------9--9--9--9-----7--7--7--7----5--4------|
---0--0--0--0----2--2--2--2------7--7--7--7-----5--5--5--5----3--2------|


Okay then theres the guitar solo. You are going to have to figure out the
rest of the sh*t. I cannot believe there are only 3 other tabs of Green
River. they frigging rule.
            
Hard to play? Try these video lessons and learn fast. | Correct




comments powered by Disqus
↑ Back to top | Tablatures and chords are parodies/interpretations of the original songs. You may use it for private study, scholarship, research or language learning purposes only