» » »

Green River, One More Stitch Tabs (ver.2)

Artists:  A B C D E F G H I J K L M N O P Q R S T U V W X Y Z # 

One More Stitch Tabs (ver.2)

Green River Tabs
 Rating:
4/5 (4 votes)
One More Stitch lessons Tabs too difficult? Try these video lessons and learn fast
                Green River - One More Stitch

(Intro)
E: -------------------------------------------|
B: -------------------------------------------|
G: --------0----------------------------------|
D: ------2---2----------0------0-----0--------|
A: ---2--------2------0-----0-----0-----------|
E: 0-----------------3-----2-----1------------|

E: -------------------------------------------|
B: -------------------------------------------|
G: --------0---------------0------0----0------|
D: ------2---2----------0------0-----0--------|
A: ---2--------2------1-----2-----3-----------|
E: 0------------------------------------------|


E: -------------------------------------------|
B: -------------------------------------------|
G: -------------------------------------------|
D: --------------------------0---0---0--------|
A: --1-2----1-3-1---1-2----0----0--0----------|
E: 0------0-------0-------3---2---1-----------|


Then this part is played again but there’s a few extra notes put in.

Now for the chords!
(Chords)
E: -------------------------------------------------|
B: -------------------------------------------------|
G: ---3--9--3-----10--9--3----3--9--3----10--4--3\--|
D: 2--3--9--3--2--10--9--3-2--3--9--3-2--10--4--3\--|
A: 2--1--7--1--2--8---7--1-2--1--7--1-2--8---2--1\--|
E: 0-----------0-----------0----------0-------------|


Now back to the chorus bit

Solo: Section 1
E: ----------------------------------------------------|
B: ----------------------------------------------------|
G: -------12p11-11p9~------------7-6-5-4--4------------|
D: 2---/9------------5~-4~-3~-2~---------7-7-5~-4-5-4--|
A: 2---------------------------------------------------|
E: 0---------------------------------------------------|


Solo: Section 2
E: ----------------------------------------------------|
B: ------------------------------------10--------------|
G: ------12p11-11p9~---------9p7-9p7-9B—-9B7h97-5-7-3-5|
D: ---/9-------------5~4~3~2~--------------------------|
A: ----------------------------------------------------|
E: ----------------------------------------------------|
Now repeat Section 1: Then This


E: ----------------------------------------------------|
B: ----------------------------------------------------|
G: ------12p11-11p9~---------9p7-9p7-9B (full)/--------|
D: ---/9-------------5~4~3~2~--------------------------|
A: ----------------------------------------------------|
E: ----------------------------------------------------|

Chorus distorted Then
End:
            
Submit corrections

comments powered by Disqus
↑ Back to top | Green River Tabs for One More Stitch. Lyrics for acoustic guitar and electric guitar. Tablatures and chords are parodies/interpretations of the original songs. You may use it for private study, scholarship, research or language learning purposes only