» » »

Xbrain Stewx Tabs (ver.1)

Artists:  A B C D E F G H I J K L M N O P Q R S T U V W X Y Z # 

Xbrain Stewx Tabs (ver.1)

Green Day
Rating:
0/5 (0 votes)

Hard to play? Try these video lessons and learn fast.
                GreenDay- brain stew

This is one of the easiest songs around with just the same 
5th chords in it (A5, G5, F#5, F5, E5)

Standard Tuning

Intro/verse


E---------------------------------
B---------------------------------
G---------------------------------
D-7-7----5-5----4-4----3-3----2-2-
A-7-7----5-5----4-4----3-3----2-2-
E-5-5----3-3----2-2----1-1----0-0-



Chorus and End when song is finishing for eight bars

E-----X-X-X-X-----X-X-X-X-----X-X-X-X-----X-X-X-X----
B-----X-X-X-X-----X-X-X-X-----X-X-X-X-----X-X-X-X----
G-----X-X-X-X-----X-X-X-X-----X-X-X-X-----X-X-X-X----
D-7-7-X-X-X-X-5-5-X-X-X-X-4-4-X-X-X-X-3-3-X-X-X-X-2-2
A-7-7-X-X-X-X-3-3-X-X-X-X-2-2-X-X-X-X-1-1-X-X-X-X-0-0
E-5-5-X-X-X-X-3-3-X-X-X-X-2-2-X-X-X-X-1-1-X-X-X-X-0-0

X= Pickscr*pe


TA

"Joe"
            
Hard to play? Try these video lessons and learn fast. | Correct




comments powered by Disqus
↑ Back to top | Tablatures and chords are parodies/interpretations of the original songs. You may use it for private study, scholarship, research or language learning purposes only