» » »

Green Day, Worry Rock Tabs (ver.1)

Artists:  A B C D E F G H I J K L M N O P Q R S T U V W X Y Z # 

Worry Rock Tabs (ver.1)

Green Day Tabs
 Rating:
4/5 (4 votes)
Worry Rock lessons Tabs too difficult? Try these video lessons and learn fast
                Standard tuning

The other tab was pretty much right, but the solo had many errors, so I tabbed the whole thing again, with the solo right

verse
|-----------------------------------------------------------------
|-----------------------------------------------------------------
|-9-9-9-9-9-9-9-9-4-4-4-4-4-4-4-4-----------------9-9-9-9-9-9-9-9-
|-9-9-9-9-9-9-9-9-4-4-4-4-4-4-4-4-7-7-7-7-7-7-7-7-9-9-9-9-9-9-9-9-
|-7-7-7-7-7-7-7-7-2-2-2-2-2-2-2-2-7-7-7-7-7-7-7-7-7-7-7-7-7-7-7-7-
|---------------------------------5-5-5-5-5-5-5-5-----------------
 -----------------------------------------------------------------|
 -----------------------------------------------------------------|
 -------------------------------------------------4-4-4-4-4-4-4-4-|
 -7-7-7-7-7-7-7-7-2-2-2-2-2-2-2-2-7-7-7-7-7-7-7-7-4-4-4-4-4-4-4-4-|
 -7-7-7-7-7-7-7-7-2-2-2-2-2-2-2-2-7-7-7-7-7-7-7-7-2-2-2-2-2-2-2-2-|
 -5-5-5-5-5-5-5-5-0-0-0-0-0-0-0-0-5-5-5-5-5-5-5-5-----------------|

chorus
|-----------------------------------------------------------------
|-----------------------------------------------------------------
|-6-6-6-6-6-6-6-6-------------------------------------------------
|-6-6-6-6-6-6-6-6-6-6-6-6-6-6-6-6-7-7-7-7-7-7-7-7-2-2-2-2-2-2-2-2-
|-4-4-4-4-4-4-4-4-6-6-6-6-6-6-6-6-7-7-7-7-7-7-7-7-2-2-2-2-2-2-2-2-
|-----------------4-4-4-4-4-4-4-4-5-5-5-5-5-5-5-5-0-0-0-0-0-0-0-0- 

 -----------------------------------------------------------------|
 -----------------------------------------------------------------|
 -6-6-6-6-6-6-6-6---------------------------------4-4-4-4-4-4-4-4-|
 -6-6-6-6-6-6-6-6-6-6-6-6-6-6-6-6-4-4-4-4-4-4-4-4-4-4-4-4-4-4-4-4-|
 -4-4-4-4-4-4-4-4-6-6-6-6-6-6-6-6-4-4-4-4-4-4-4-4-2-2-2-2-2-2-2-2-|
 -----------------4-4-4-4-4-4-4-4-2-2-2-2-2-2-2-2-----------------|

before solo
-2-2-2-2----9-9-9-9-----------------------------------------------
-2-2-2-2----9-9-9-9-----------------------------------------------
-0-0-0-0----7-7-7-7-----------------------------------------------

solo
|--------------------------------------------------------------
|--------------------------------------------------------------
|--------------------------------------------------------------
|--------------------------------------------------------------
|-------------2------2/6---4---2----0---4---2---0----2----0----
|-0-----4-5--------4-----------------------------------4-------
 
------4---2--------2-------------------------------------------
--5-----------5--------4---0--------5---5---5---4----4---2-----

 -0-0-0-0-0-0-0-0----0-0-0-0-0-0-0-0---(0)(0)(0)(0)(0)-------------
 -5-5-5-5-4-5-7-5----0-2-2-0-2-0-2-0---(0)(2)(0)(2)(0)-------------
 ------------------------------------------------------------------
 ------------------------------------------------------------------
 ------------------------------------------------------------------
 ------------------------------------------------------------------

 -0-0-0-0-0-0-0-0-0-0--0-0-0-0---0-0-0-0-0-0-0-0-0-----------------
 -0-0h2-2-2-2-0-0-2-0--0-0-0-0---0-0h2-2-2-2-0-0-4--0-7\5-5\4-4\2--
 ------------------------------------------------------------------
 ------------------------------------------------------------------
 ------------------------------------------------------------------
 ------------------------------------------------------------------

 last verse
-7--2-----7-----7----2--------------------------------------------(in the end it
-7--2-----7-----7----2-------------------------------------------- keeps repeating
-5--0-----5-----5----0-------------------------------------------- those chords)


lyrics

another sentimental argument and bitter love
***ed without a kiss again and dragged it through the mud
yelling at brick walls and punching windows made of stone
the worry rock has turned to dust and fallen on our pride
a knocked down dragged out fight fat lips and open wounds
another wasted night, and no one will take the fallwhere do we go from where?
and what did you do with the directions?
promise me no dead end streets and i'll guarantee we'll have the road
            
Submit corrections

comments powered by Disqus
↑ Back to top | Green Day Tabs for Worry Rock. Lyrics for acoustic guitar and electric guitar. Tablatures and chords are parodies/interpretations of the original songs. You may use it for private study, scholarship, research or language learning purposes only