» » »

Green Day, Words I Might Have Ate  Tabs (ver.2)

Artists:  A B C D E F G H I J K L M N O P Q R S T U V W X Y Z # 

Words I Might Have Ate  Tabs (ver.2)

Green Day Tabs
 Rating:
4/5 (4 votes)
Words I Might Have Ate  lessons Tabs too difficult? Try these video lessons and learn fast
                Released: 1991 lookout records
Track: 12

pm - palm mute


intro

|---------------------------------|
|---------------------------------|
|---------------------------------|
|---------------------------------|
|-7-7-7-7-7-7-7-7-2-2-2-2-2-2-2-2-|
|-5-5-5-5-5-5-5-5-3-3-3-3-3-3-3-3-|

verse

|---------------3-3-3-3-3-3-3----------------------------------
|-2-2-2-2-2-2-2-0-0-0-0-0-0-0-2-2-2-2-2-2-2-2-2--2-2-2-2-2-2-2-
|-2-2-2-2-2-2-2-0-0-0-0-0-0-0-2-2-2-2-2-2-2-2-2--2-2-2-2-2-2-2-
|-2-2-2-2-2-2-2-0-0-0-0-0-0-0-2-2-2-2-2-2-2-2-2--2-2-2-2-2-2-2-
|-0-0-0-0-0-0-0-2-2-2-2-2-2-2-0-0-0-0-0-0-0-0-0--0-0-0-0-0-0-0-
|---------------3-3-3-3-3-3-3----------------------------------

 -3-3-3-3-3-3-3-------------------|
 -0-0-0-0-0-0-0-------------------|
 -0-0-0-0-0-0-0-1-1-1-1-1-1-1-1-1-|
 -0-0-0-0-0-0-0-2-2-2-2-2-2-2-2-2-|
 -2-2-2-2-2-2-2-2-2-2-2-2-2-2-2-2-|
 -3-3-3-3-3-3-3-0-0-0-0-0-0-0-0-0-|

chorus

|-------------------------------------------------------------
|-------------------------------------------------------------
|-7--7--7--7--------------------------------------7-7-7-7-7-7-
|-7--7--7--7--7--7--7--7--7-7-7-7-5-5-5-5-4-4-4-4-7-7-7-7-7-7-
|-5--5--5--5--7--7--7--7--7-7-7-7-5-5-5-5-4-4-4-4-5-5-5-5-5-5-
|-------------5--5--5--5--5-5-5-5-3-3-3-3-2-2-2-2-------------

 -----------------------------|
 -----------------------------|
 -9-9-9-9-9-9-----------------|
 -9-9-9-9-9-9-7-7-7-7-7-7-7-7-|
 -7-7-7-7-7-7-7-7-7-7-7-7-7-7-|
 -------------5-5-5-5-5-5-5-5-|

|-------------------------|
|-------------------------|
|-------------------------|
|-7-7-7-7-7-7-5-5-5-5-5-5-|
|-7-7-7-7-7-7-5-5-5-5-5-5-|
|-5-5-5-5-5-5-3-3-3-3-3-3-|

lyrics

now it seems i can't keep my mind off you
my mind drifts back to better days we've been through
like sitting on blacktop of the school grounds
the love i b**ched about i finally found
but now it's gone and i take the blame
so there's nothing i can do but take the pain...why?
now i dwell on what you remind me of
a sweet young girl who sacrificed her love
as for me i am blind without a cause
and now i realized what i have lost
it was something real that i could've had
now i play the fool who's soul's gone bad...why?
tell me the words i might have said
it's pumping pressure deep inside my head
was it bad enough to be too late
just tell me the words i might have ate
the words i might have ate...
            
Submit corrections

comments powered by Disqus
↑ Back to top | Green Day Tabs for Words I Might Have Ate . Lyrics for acoustic guitar and electric guitar. Tablatures and chords are parodies/interpretations of the original songs. You may use it for private study, scholarship, research or language learning purposes only