>
 >
When I Come Around Correct

When I Come Around Correct Guitar Tabs

Green Day - When I Come Around Correct chords, tabs, tablatures, lyrics

Guitar lessons | Add/correct | Request | Top 50 tabs Artists:  A B C D E F G H I J K L M N O P Q R S T U V W X Y Z 0-9

When I Come Around Correct Guitar Tabs – Green Day

CD, Sheet music, Poster

Do you like When I Come Around Correct? Share with your friends now
Tabs
Intro Riff  x 3  ------------G D E C
Verse  x 4  -----------------G D E C
Chorus  x 2  ----------------A C A C
Intro Riff  x 3  ------------G D E C
Verse  x 4  -----------------G D E C
Chorus  x 2  ----------------A C A C
Intro Riff x 2  -------------G D E C
Solo  x 1  -----------------(picking, no chords)
Chorus  x 2  ----------------A C A C
Intro Riff x 2  -------------G D E C


_________________________________________________________________

Intro Riff/ Verse
         G	         D             E           C 
[-------------------------------------------------------]
[-------------------------------------------------------]
[----------------------7--7--7-------9--9--9------5-5---]x7  (3 Intro Riff, 4 Verse) 
[-----5--5--5----------7--7--7-------9--9--9------5-5---]
[-----5--5--5----------5--5--5-------7--7--7------3-3---]
[-----3--3--3-------------------------------------------]
  PM......|         PM......|     PM......|

                       (Comes In After The Third Time)
I heard you crying loud all the way across town
You've been searching for that someone
and it's me out on the powl
As you sit around feeling sorry for yourself
Don't get lonely now
Dry your whining eyes
I'm just roaming for the moment
Sleazin' my backyard so don't get so uptight
you been thinking about ditching me

_________________________________________________________________

Chorus
        A                  C
E|---------------------------------------------|
B|---------------------------------------------|
G|---------------------------------------------| x2
D|-7-7-7-7-7-7-7-7-1010101010101010------------| 
A|-7-7-7-7-7-7-7-7-1010101010101010------------|
E|-5-5-5-5-5-5-5-5--8-8-8-8-8-8-8-8------------|
       No time to search the world around
       Cause you know where I'll be found
                 When I come around


_________________________________________________________________

Intro Riff/ Verse
         G	         D             E           C 
[-------------------------------------------------------]
[-------------------------------------------------------]
[----------------------7--7--7-------9--9--9------5-5---]x7  (3 Intro Riff, 4 Verse) 
[-----5--5--5----------7--7--7-------9--9--9------5-5---]
[-----5--5--5----------5--5--5-------7--7--7------3-3---]
[-----3--3--3-------------------------------------------]
  PM......|         PM......|     PM......|

                   (Comes In After The Third Time)
I heard it all before
So don't knock down my door
I'm a loser and a user so to slag me
down because I know I'm right
So go do what you like
Make sure you do it wise
You may find out that your self doubt
means nothing was ever there


_________________________________________________________________

Chorus
        A                   C
E|---------------------------------------------|
B|---------------------------------------------|
G|---------------------------------------------| x2
D|-7-7-7-7-7-7-7-7-1010101010101010------------| 
A|-7-7-7-7-7-7-7-7-1010101010101010------------|
E|-5-5-5-5-5-5-5-5--8-8-8-8-8-8-8-8------------|
        No time to search the world around
       Cause you know where I'll be found
                 When I come around


_________________________________________________________________

Intro Riff
        G	         D                E         C 
[---------------------------------------------------------------]
[---------------------------------------------------------------]
[-----------------------7--7--7---------9--9--9-----5-5---------] x2
[-----5--5--5-----------7--7--7---------9--9--9-----5-5---------]
[-----5--5--5-----------5--5--5---------7--7--7-----3-3---------]
[-----3--3--3---------------------------------------------------]
   PM......|        PM......|        PM......|


_________________________________________________________________

Solo
[--------------------------------------------------------------------]
[--8--8--10--10--8---8--10--8---8--8--10--10--10--8--8--------8------]
[----7--7---7---7---7---------7------------------------7--8/9---9----] x1
[-----------------------------------------------------------------10-]
[--------------------------------------------------------------------]
[--------------------------------------------------------------------]


_________________________________________________________________

Chorus
         A                 C
E|---------------------------------------------|
B|---------------------------------------------|
G|---------------------------------------------| x2
D|-7-7-7-7-7-7-7-7-1010101010101010------------| 
A|-7-7-7-7-7-7-7-7-1010101010101010------------|
E|-5-5-5-5-5-5-5-5--8-8-8-8-8-8-8-8------------|


_________________________________________________________________

Intro Riff
        G	         D                E         C 
[---------------------------------------------------------------]
[---------------------------------------------------------------]
[-----------------------7--7--7---------9--9--9-----5-5---------] x2
[-----5--5--5-----------7--7--7---------9--9--9-----5-5---------]
[-----5--5--5-----------5--5--5---------7--7--7-----3-3---------]
[-----3--3--3---------------------------------------------------]
   PM......|        PM......|        PM......|

This tab is 100%. Im postive this i all right. There Are only 2 things that might possibly be wrong. Either 
The Solo Is Half and Half right, the fret numbers not perfectly alligned or both. The last tab (She Hates Me) I
Did Was really screwed up  but anyhow, i think this tab is the best it could be except for those few exceptions.





Comments


Popular Green Day tabs & chords
The Ballad Of Wilhelm Fink Bass Tabs
Fod 1 Chords
Sassafras Roots Chords
8th Avenue Serenade Tabs
Are We The Waiting 3 Tabs
Body Odor Tabs
Burn Out 1 Tabs
No One Knows 1 Tabs
Scattered Tabs
Stew Brain Tabs


Song lyrics



↑ Back to top | Tablatures and chords are parodies/interpretations of the original songs. You may use it for private study, scholarship, research or language learning purposes only
© 2014 AZChords.com Contact us | Privacy policy | DMCA | Add/correct tabs | Request tabs | Top 50 tabs