>
 >
Welcome To Paradise  2

Welcome To Paradise  2 Guitar Tabs

Green Day - Welcome To Paradise  2 chords, tabs, tablatures, lyrics

Guitar lessons | Add/correct | Request | Top 50 tabs Artists:  A B C D E F G H I J K L M N O P Q R S T U V W X Y Z 0-9

Welcome To Paradise  2 Guitar Tabs – Green Day

CD, Sheet music, Poster

Do you like Welcome To Paradise  2? Share with your friends now
ChordsTabsTabs v2Tabs v3
Welcome to Paradise.
Tune down half a step for the whole song including the second guitar.


Intro

E|-------------------------------------------------------------------|
B|-------------------------------------------------------------------|
G|---9X99—X-7777-----------------------------------------------------|
D|---9X99—X-7777--777------------------------------------------------|
A|---7X77—X-5555--777------------------------------------------------|
E|----------------555------------------------------------------------|

Verse

E|-------------------------------------------------------------------|
B|-------------------------------------------------------------------|
G|---999-999--777-777-999-9999----999-999-777-777--------------------|
D|---999-999--777-777-999-9999----999-999-777-777-55555-999-9999-----|
A|---777-777--555-555-777-7777----777-777-555-555-55555-999-9999-----|
E|------------------------------------------------33333-777-7777-----|

E|-------------------------------------------------------------------|
B|-------------------------------------------------------------------|
G|---999-999--777-777-999-9999----999-999-777-777--------------------|
D|---999-999--777-777-999-9999----999-999-777-777-55555-999-9999-----|
A|---777-777--555-555-777-7777----777-777-555-555-55555-999-9999-----|
E|------------------------------------------------33333-777-7777-----|

E|-------------------------------------------------------------------|
B|-------------------------------------------------------------------|
G|-------------------------------------------------------------------|
D|---55555--999999999999---------------------------------------------|
A|---55555--999999999999---------------------------------------------|
E|---33333--777777777777---------------------------------------------|

Chorus

E|-------------------------------------------------------------------|
B|-------------------------------------------------------------------|
G|------------------------555-555------------------4444444444--------|
D|---22222--55555--77777--555-555----22222--55555--4444444444--------|
A|---22222--55555--77777--333-333----22222--55555--2222222222--------|
E|---00000--33333--55555-------------00000--33333--------------------|

E|-------------------------------------------------------------------|
B|-------------------------------------------------------------------|
G|------------------------555-555------------4-----------------------|
D|---22222--55555--77777--555-555----222222--4-----------------------|
A|---22222--55555--77777--333-333----222222--2-----------------------|
E|---00000--33333--55555-------------000000--------------------------|

Interlude Pt. 1  (Played quietly before main guitar riff)

E|-------------------------------------------------------------------|
B|-------------------------------------------------------------------|
G|-------------------------------------------------------------------|
D|-------------------------------------------------------------------|
A|---1-/-7-----7-/-2------3-2---2-3-2----1-/-6-/-5---1-/-5-/-4-/3-/-2|
E|----------------------------5--------------------------------------|

Interlude Pt. 2 
E|-------------------------------------------------------------------|
B|---------8--------11---------10--------9---------------------------|
G|----------7---------10---------9--------8--------------------------|
D|-----5-5------8-8-------7-7-------6-6----This string is palm muted-|
A|-------------------------------------------------------------------|
E|-------------------------------------------------------------------|

 Interlude Pt. 3 (The guitar really gets going)
E|-------------------------------------------------------------------|
B|---8-8-8-8—--11-11-11-11---10-10-10-10---9-9-9-9-------------------|
G|---7-7-7-7—--10-10-10-10---9--9--9--9----8-8-8-8-------------------|
D|---5-5-5-5—--8--8--8---8---7--7--7--7----6-6-6-6-------------------|
A|-------------------------------------------------------------------|
E|-------------------------------------------------------------------|

During Interlude pt.3 a second guitarist plays this palm muted.

E|-------------------------------------------------------------------|
B|-------------------------------------------------------------------|
G|-------------------------------------------------------------------|
D|---12-12-12---15-15-15---14-14-14---13-13-13-----------------------|
A|---10-10-10---13-13-13---12-12-12---11-11-11-----------------------|
E|-------------------------------------------------------------------|



Order:
Intro x 4 (2 just guitar then 2 with bass)
Verse x 1
Chorus x 1
Intro x 2
Verse x 1
Chorus x 1 
Intro x 4 (but then end on the below chord and let it ring going into the solo)
E|------------------------------|
B|------------------------------|
G|------------------------------|
D|---9--------------------------|
A|---9--------------------------|
E|---7--------------------------|
Interlude pt. 1 x 1
Interlude pt. 2 x 4
Interlude pt. 3 x 4
Verse x 1
Chorus x1
Intro x 4 (but end on the chord below this time don't let it ring stop it dead)
E|------------------------------|
B|------------------------------|
G|------------------------------|
D|---9--------------------------|
A|---9--------------------------|
E|---7--------------------------|





Comments


Popular Green Day tabs & chords
21st Century Breakdown 4 Bass Tabs
Church On Sunday 2 Bass Tabs
Don't Leave Me 1 Bass Tabs
Fod Bass Tabs
Brat 2 Chords
Blitzkrieg Bop Tabs
Brain Stew 7 Tabs
Haha You're Dead 1 Tabs
Pulling Teeth 1 Tabs
Walking Alone Tabs


Song lyrics



↑ Back to top | Tablatures and chords are parodies/interpretations of the original songs. You may use it for private study, scholarship, research or language learning purposes only
© 2014 AZChords.com Contact us | Privacy policy | DMCA | Add/correct tabs | Request tabs | Top 50 tabs