» » »

Green Day, Walking Contradiction Tabs (ver.2)

Artists:  A B C D E F G H I J K L M N O P Q R S T U V W X Y Z # 

Walking Contradiction Tabs (ver.2)

Green Day Tabs
 Rating:
4/5 (4 votes)
Walking Contradiction lessons Tabs too difficult? Try these video lessons and learn fast
                
INTRO:

 pm * * * * * * * * *|
|-------------------------------|
|-------------------------------|
|-------------------------------|
|-6-6-6-6-6-6-6-6-6-6-6-6-6-6-6-|
|-6-6-6-6-6-6-6-6-6-6-6-6-6-6-6-|
|-4-4-4-4-4-4-4-4-4-4-4-4-4-4-4-|

VERSE:

|-------------------------------|
|-------------------------------|
|-------6-6-6-6-----------------|
|-6-6-6-6-6-6-6-4-4-4-4-6-6-6-6-|
|-6-6-6-4-4-4-4-4-4-4-4-6-6-6-6-|
|-4-4-4---------2-2-2-2-4-4-4-4-|

CHORUS:

|---------------------------------|
|---------------------------------|
|-6-6-6-6-------------------------|
|-6-6-6-6-4-4-4-4-6-6-6-6-6-6-6-6-|
|-4-4-4-4-4-4-4-4-6-6-6-6-6-6-6-6-|
|---------2-2-2-2-4-4-4-4-4-4-4-4-|
            
Submit corrections

comments powered by Disqus
↑ Back to top | Green Day Tabs for Walking Contradiction. Lyrics for acoustic guitar and electric guitar. Tablatures and chords are parodies/interpretations of the original songs. You may use it for private study, scholarship, research or language learning purposes only