» » »

Green Day, Walking Contradictin Tabs (ver.1)

Artists:  A B C D E F G H I J K L M N O P Q R S T U V W X Y Z # 

Walking Contradictin Tabs (ver.1)

Green Day Tabs
Rating:
0/5 (0 votes)
Walking Contradictin lessons Tabs too difficult? Try these video lessons and learn fast
                * = palm-mute
x = scratch note

E flat tuning (Eb, Ab, Db, Gb, Bb, eb)

intro)

eb)-------------------
Bb)-------------------
Gb)-------------------
Db)--7-7-7-7-7-7-7-7-7
Ab)--7-7-7-7-7-7-7-7-7
Eb)--5-5-5-5-5-5-5-5-5
       * * * * * * * *
listen to the song for the exact timing and how many times Billie
hits the palm-muted note. let off the palm-muted note the father you get into it.

verse)

eb)----------------- )
Bb)----------------- )
Gb)-------7-x------- )
Db)--7-xx-7-x5-5-7-- )  <---18 times
Ab)--7-xx-5-x5-5-7-- )
Eb)--5-xx--- 3-3-5-- )

Chorus)

eb)------------------- )
Bb)------------------- )
Gb)--7-7-------------- )
Db)--7-7-5-5-7-7-7-7-- )  <---4 times  
Ab)--5-5-5-5-7-7-7-7-- )
Eb)------3-3-5-5-5-5-- )


----------------------------------------
lyrics
----------------------------------------
do as i say not as i do because
the *** so deep you can't run away
i beg to differ on the contrary
i agree with every word that you say
talk is cheap and lies are expensive
my wallet's fat and so is my head
hit and run and then i'll hit you again
i'm a smart-ass but im playing dumb
standards set and broken all the time
control chaos behind a gun
call it as i see it even if
i was born deaf, blind, and dumb
losers winning big on the lottery
rehab rejects still sniffing glue
constant refutation with myself
i'm a victim of a catch 22
i have no belief
but i believe
im a walking contradiction
and i ain't got no right

thats it. please rate!
            
Submit corrections

comments powered by Disqus
↑ Back to top | Green Day Tabs for Walking Contradictin. Lyrics for acoustic guitar and electric guitar. Tablatures and chords are parodies/interpretations of the original songs. You may use it for private study, scholarship, research or language learning purposes only