» » »

Green Day, Tired Of Waiting For You Tabs (ver.1)

Artists:  A B C D E F G H I J K L M N O P Q R S T U V W X Y Z # 

Tired Of Waiting For You Tabs (ver.1)

Green Day Tabs
 Rating:
4/5 (4 votes)
Tired Of Waiting For You lessons Tabs too difficult? Try these video lessons and learn fast
1
                Artist-Green Day
Song-Tired of waiting for you
Album-Shenanigans
Company-Reprise records



Key:	/ - slide to next fret
	b - bend up 
	h - hammer on 	
	p - pull off.
        x - put finger over the string just hard enough to mute the note and hit.
There's two guitars. I'm gonna try to cover both parts. No solos or anything, nice easy song to paly with a friend.
There's a bass part too, but I don't paly bass. lol. so get someone else to do it.

LEAD GUITAR PARTS        
Intro(Lead guitar)-
E--------------------------------------------------------------------|
B----------------7---------------------------------------------------|
G------4-6-4---4-----------------------------------------------------|
D--3/4b------4-------------------------------------------------------|
A--------------------------------------------------------------------|
E--------------------------------------------------------------------|

Verse 1-
E--------------------------------------------------------------------|
B----------------7---------------------------------------------------|
G------4-6-4---4-----------------------------------------------------|
D----4-------4-------------------------------------------------------|
A--------------------------------------------------------------------|
E--------------------------------------------------------------------|
Play notes
(Try using staccato notes for the into and the first verse, very light distortion, flange may be.)

Verse 2-
No lead guitar in verse 2, only Rhythem

Verse 3(This is technically a Rhythem part, but it has the same distortion as 
the other lead parts and its not in drop D)-
    F#   Fm   E    Fm
E---2----1----0----1----|
B---2----1----0----1----|
G---3----1----1----1----|
D---4----4----2----4----|
A---4----4----2----4----|
E---2----1----0----1----|
Play notes
(He strums each barre cord different every time, so just listen tot he song to get 
the rhythem. For example near the end of the verse he starts stumming each cord 
8 times (up and down) once he hits the E cord. or he'll hit strum, the strum the 
same cord quickly right before changing cords)

Verse 1 (second time)-
On the second time around he doesnt play it as before, 
instead he strums F# and E each 4 times, over and over.

F#       E      F#       E
So       tired, tired of waitn'
F#       E      F#       E
Tired of waitn' for you

That's how he plays it in order witht he song


RHYTHEM GUITAR PARTS
Intro and verse 1(Rhythem guitar)Drop D tuning-
E-------------------|
B-------------------|
G-------------------|
D---4/2--x--2/4--x--|
A---4/2--x--2/4--x--|
E---4/2--x--2/4--x--|

Verse 2 (Still drop D)-
E-------------------|
B-------------------|
G-------------------|
D---4-4----2-2------|
A---4-4----2-2------|
E---4-4----2-2------|

Verse 3-
This is technically a rhythem verse, but because its not in drop D and its got the same 
distortion as the lead guitar, I'm guessing its played by the lead guitar.





Lyrics:

Verse 1
So tired, tired of waitn'
Tired of waitn' for you
So tired, tired of waitn'
Tired of waitn' for you

Verse 2
I was a lonely soul,
I had no-body till I met you
But you keepn' me waitn' all of the time
What can I do

verse 3
It's your life and
you can do what you wanna do
Do what you like
Please don't keep me waitn'
Please don't keep me waitn'
cuz I'm
---Verses 1-3 again then

Ending
For you
For you
            
Submit corrections

comments powered by Disqus
↑ Back to top | Green Day Tabs for Tired Of Waiting For You. Lyrics for acoustic guitar and electric guitar. 1 Tablatures and chords are parodies/interpretations of the original songs. You may use it for private study, scholarship, research or language learning purposes only