>
 >
Time Of Your Life (Good Riddance)

Time Of Your Life (Good Riddance) Guitar Tabs

Green Day - Time Of Your Life (Good Riddance) chords, tabs, tablatures, lyrics

Guitar lessons | Add/correct | Request | Top 50 tabs Artists:  A B C D E F G H I J K L M N O P Q R S T U V W X Y Z 0-9

Time Of Your Life (Good Riddance) Guitar Tabs – Green Day

CD, Sheet music, Poster

Do you like Time Of Your Life (Good Riddance)? Share with your friends now
Tabs
This is an awesome song.  Iím not sure if this tab is 100% correct 
but itís a lot closer than any Iíve seen.It at least has the right 
amount of picks, even if they r not quite right.  It sounds a lot 
better than theother tabs too.  Thanx to the authors of the other 
tabs for this song, they really helped me figure it out.  It looks 
harder than it really is, just make sure u do the double pick right 
with the highest two strings.  If u listen closely to the song, u 
can hear the double pick, especially on the second double pick, it 
isnt picked at quite the same time.  I use all 4 of my fingers on 
the highest 4 strings, and my thumb on the bottom two, it makes it 
pretty easy.  PLEASE EMAIL ME if u use this tab and tell me what u 
think of it. Also if u have any corrections then please tell me.  




Chords
Gmodal   :320033
C9       :032033
Dsus4    :000233
Em7      :022033

Intro

G
   |------------------|	
   |------------------|
   |-----0---------0--|
   |---0--0-------0-0-|
   |------------------|
   |-3----------3-----|


This line is played 4 times, twice as part of the intro, and then 
twice for the first two lines of the verses.
   G                              C9             Dsus4
   |------3------------3--------------3---------------3---------|	
   |------3---3--------3---3----------3---3-----------3---3-----|	
   |--------0--0---------0--0-----------0---0-------2---2---2---|	
   |---0-------------0--------------2-------------0-------------|
   |------------------------------3-----------------------------| 
   |-3-------------3--------------------------------------------|  

This line is played twice, for the last two lines of the verses.
    Em            Dsus4           C9                G
   |-----3-------------3---------------3---------------3---------|   
   |-----3----3--------3---3-----------3---3-----------3---3-----|	             |--------0--0------2--2---2-----------0---0-----------0---0---|	  
   |---2-----------0-----------------2--------------0------------|	 
   |-------------------------------3-----------------------------|   
   |-0--------------------------------------------3--------------|   
CHORUS:
    Em            G            Em              G
   |------3------------3------------3-----------3------------|
   |------3---3--------3---3--------3---3-------3---3--------|
   |--------0---0--------0---0--------0---0-------0---0------|
   |---2------------0------------2-----------0---------------|
   |---------------------------------------------------------|
   |-0------------3------------0-----------3-----------------|
       
   |------3-------------3--------|  
   |------3---3---------3---3----|  
   |--------0---0-----2---2---2--|  (strum G, C, Dsus4)
   |---2------------0------------|  
   |-----------------------------|
   |-0---------------------------|


Then play the chorus, the instrumental part over the violins and the 
chorus again

End with Tab 1,         |---------|
                        |---------|
                        |--2------|
                        |----0----|
                        |------0--|  then a G
                        |---------|





Comments


Popular Green Day tabs & chords
409 In Your Coffee Maker 1 Bass Tabs
Android  2 Bass Tabs
Are We The Waiting 2 Bass Tabs
Carpe Diem 2 Bass Tabs
Fashion Victim 2 Bass Tabs
Poprocks & Coke Bass Tabs
21 Guns 4 Chords
Dont Wanna Fall In Love Chords
Dry Ice Tabs
I Was There  Tabs


Song lyrics



↑ Back to top | Tablatures and chords are parodies/interpretations of the original songs. You may use it for private study, scholarship, research or language learning purposes only
© 2014 AZChords.com Contact us | Privacy policy | DMCA | Add/correct tabs | Request tabs | Top 50 tabs