» » »

The Angel And The Jerk Bass tabs (ver.1)

Artists:  A B C D E F G H I J K L M N O P Q R S T U V W X Y Z # 

The Angel And The Jerk Bass tabs (ver.1)

Green Day
Rating:
0/5 (0 votes)

Hard to play? Try these video lessons and learn fast.
                you may not know this song,but it was on the Friends again soundtrack (1999)
but here is the tab for anyone who wandered how to play it..

INTRO
G---------------------------
D---------------------------
A--------5-5-5-3-3-3-5-5-5--
E--3-3-3--------------------

VERSE
G-------------------------------------------------
D-------------------------------------------------
A----------5-5-5-5-5-5-5-5---------3-3-3-5-5-5-5--
E--3-3-3-3-----------------3-3-3-3----------------

G-------------------------------------------   ---------  play this fill
D-------------------------------------------   ---------  only the first
A----------5-5-5-5-5-5-5-5--3-3-3-3-5-5-5-5-   -5-3----- time in the verse
E--3-3-3-3----------------------------------   -----3-5-  

CHORUS: (same as intro)

BRIDGE:
G-------------------------------------------------------
D-------------------------------------------------------
A-------------2-2-2-2-2-2-2-2-----------3-3-3-3-3-3-3-3-
E---0-0-0-0-0-----------------0-0-0-0-0-----------------

G-------------------------------------------------------
D-------------------------------------------------------
A------------5-5-5-5-5-5-5-3-3-3-3-3-3-3-3-3-3-3-3-3-3--
E--3-3-3-3-3--------------------------------------------

END
G----------------------
D----------------------
A----------------------
E--3-3-(3)-------------
	end.
Order:
INTRO X 4
VERSE x 2
CHORUS X 4
BRIDGE X 2
CHORUS X 4
VERSE x 2
CHORUS X 4
END X 1
            
Hard to play? Try these video lessons and learn fast. | Correct




comments powered by Disqus
↑ Back to top | Tablatures and chords are parodies/interpretations of the original songs. You may use it for private study, scholarship, research or language learning purposes only