» » »

Green Day, Stuck With You Tabs (ver.1)

Artists:  A B C D E F G H I J K L M N O P Q R S T U V W X Y Z # 

Stuck With You Tabs (ver.1)

Green Day Tabs
 Rating:
4/5 (4 votes)
Stuck With You lessons Tabs too difficult? Try these video lessons and learn fast
                green day
stuck with you
-intro
e|-----------------------------------------|
B|-----------------------------------------|
G|-8-8-8-8-8-8-8-8-8-5---------------------|
D|-8-8-8-8-8-8-8-8-8-5-8-6-6-6-6-6-6-6-6-6-|
A|-6-6-6-6-6-6-6-6-6-3-8-6-6-6-6-6-6-6-6-6-|
E|---------------------6-4-4-4-4-4-4-4-4-4-|

-verse
pm_________________|
e|-----------------------------------------------------------
B|-----------------------------------------------------------
G|-8-8-8-8-8-8-8-8-8-----------------------------------------
D|-8-8-8-8-8-8-8-8-8-8-8-8-8-8-8-8-8-6-6-6-6-6-6-8-8-8-8-8-8-
A|-6-6-6-6-6-6-6-6-6-8-8-8-8-8-8-8-8-6-6-6-6-6-6-8-8-8-8-8-8-
E|-------------------6-6-6-6-6-6-6-6-4-4-4-4-4-4-6-6-6-6-6-6-

e|-------------------------|
B|-------------------------|
G|-------------------------| 
D|-6-6-6-6-6-6-8-8-8-8-8-8-|
A|-6-6-6-6-6-6-8-8-8-8-8-8-|
E|-4-4-4-4-4-4-6-6-6-6-6-6-|

-chorus
e|-------------------------------------|
B|-------------------------------------|
G|-5-5-5-5-5-5---------8-8-8-8-8-8-8-8-|
D|-5-5-5-5-5-5-6-6-6-6-8-8-8-8-8-8-8-8-|
A|-3-3-3-3-3-3-6-6-6-6-6-6-6-6-6-6-6-6-|
E|-------------4-4-4-4-----------------|

e|-------------------------------------|
B|-------------------------------------|
G|-------------------------8-8-8-8-8-8-|
D|-6-6-6-6-6-6-8-8-8-8-8-8-8-8-8-8-8-8-|
A|-6-6-6-6-6-6-8-8-8-8-8-8-6-6-6-6-6-6-|
E|-4-4-4-4-4-4-6-6-6-6-6-6-------------|
            
Submit corrections

comments powered by Disqus
↑ Back to top | Green Day Tabs for Stuck With You. Lyrics for acoustic guitar and electric guitar. Tablatures and chords are parodies/interpretations of the original songs. You may use it for private study, scholarship, research or language learning purposes only