» » »

Green Day, Stuck With Me Bass tabs (ver.1)

Artists:  A B C D E F G H I J K L M N O P Q R S T U V W X Y Z # 

Stuck With Me Bass tabs (ver.1)

Green Day Tabs
 Rating:
4/5 (4 votes)
Stuck With  Me lessons Tabs too difficult? Try these video lessons and learn fast
                "(2)
Riff 1:						Riff 2:
Gb|--------------------------------------------------|---------------------------------------------|
Db|--------------------------------------------------|---7---5----7-5-4H5--------------------------| 
Ab|-7-7-7-7-7-7-7-7-7-7------------------------------|---------------------------------------------|
Eb|---------------------9-7--------------------------|-5---5---5-----------------------------------|
  
Riff 3:                                             Riff 5:
Gb|--------------------------------------------------|---------------------------------------------|
Db|-7-7-5-5-4-4-5-5-7-7-5-5-4-4-5--------------------|---------------------------------------------|
Ab|--------------------------------------------------|-7-7-7-7-7-7-7-7-7-7-------------------------|
Eb|--------------------------------------------------|---------------------------------------------|
  
 Riff 5(cont.):
Gb|-------------------------------------------------------------------------|
Db|---------------------------------------------7H9-------------------------|
Ab|---------9-----9-------9-------7---------7H9-----------7-----9-7-6-7-9-7-|
Eb|-7-7-7-7---7-7---7-7H9---5-5-5---7-7-7H9---------5-5-5---5-7-------------|
  
 Riff 6:					  Riff 7:
Gb|--------------------------------------------------|---------------------------------------------|
Db|-------6-------------5H7--------------------------|-----9-----7-----9-----9---------------------|
Ab|-4-4-4-----------5H7------------------------------|-7-7---7-7---7-7---7-7-----------------------|
Eb|---------5-5-5H7----------------------------------|---------------------------------------------|
  
 Riff 8:																																					          Riff 9: 
Gb|--------------------------------------------------|---------------------------------------------|
Db|--------------------------------------------------|-------------9-7-6H7-------------------------|
Ab|-7-7-7-7-7-6-7-6-9-9------------------------------|7-7-7-7-7-7----------------------------------|
Eb|--------------------------------------------------|---------------------------------------------|
			Riff 10:
   Riff
Gb|---------------------------------------------|First time rest second time 
Db|-----------5H7---9P7-------------------------|do the -9-7- on the Eb.
Ab|-------5H7-----------9P7-----7-7-7-7-7-7-7-R-|
Eb|-5-5H7---------7---------9P7-----------------|   
   
Riff 11(sounds really cool if you can play it right it's REALLY fast):
Gb|-----------------4-------------------------------4--------------|
Db|-----------4-6-7---7-6-4---------------------------7-6-4--------|
Ab|-----4-5-7---------------7-5-4-----4-5-7-5-4-------------7-5-4--|
Eb|-5-7---------------------------5-7-----------7-5----------------|
"            
Submit corrections

comments powered by Disqus
↑ Back to top | Green Day Bass for Stuck With Me. Lyrics for acoustic guitar and electric guitar. Tablatures and chords are parodies/interpretations of the original songs. You may use it for private study, scholarship, research or language learning purposes only