» » »

Second Time Around Tabs (ver.1)

Artists:  A B C D E F G H I J K L M N O P Q R S T U V W X Y Z # 

Second Time Around Tabs (ver.1)

Green Day
Rating:
0/5 (0 votes)

Hard to play? Try these video lessons and learn fast.
                Track: --one of Billie Joe's voice messages--
Lyrics by:  Billie Joe?
Music by:  Green Day

Note: This is that version of "When I come Around" that the guys did on their site.  I believe its called "Second Time around" so thats what i listed it as. [[Since that is the lyric...]] It has the same strumming pattern as "When I Come Around" so, theres not much difference. I dont know the lyrics really well because it's sort of hard to hear. But its a fun riff to play i think.

Verse: [[repeat 8x [i believe]]]

    G5 D5 E5 C5
e|--------------------------------------------------|
B|--8-----------------------------------------------|
G|--7--7--9--5--------------------------------------|
D|--5--7--9--5--------------------------------------|
A|-----5--7--3--------------------------------------|
E|--------------------------------------------------|

Chorus: [[repeat 2x]]

    A5 C5 
e|--------------------------------------------------|
B|--------------------------------------------------|
G|-----5--------------------------------------------|
D|--7--5--------------------------------------------|
A|--7--3--------------------------------------------|
E|--5-----------------------------------------------|


-Amanda
            
Hard to play? Try these video lessons and learn fast. | Correct




comments powered by Disqus
↑ Back to top | Tablatures and chords are parodies/interpretations of the original songs. You may use it for private study, scholarship, research or language learning purposes only