>
 >
Scumbag

Scumbag Guitar Tabs

Green Day - Scumbag chords, tabs, tablatures, lyrics

Guitar lessons | Add/correct | Request | Top 50 tabs Artists:  A B C D E F G H I J K L M N O P Q R S T U V W X Y Z 0-9

Scumbag Guitar Tabs – Green Day

CD, Sheet music, Poster

Do you like Scumbag? Share with your friends now
ChordsTabsTabs v2Tabs v3
Hey, I didn't see any good tabs for this anywhere, so I did it myself. The solo is pretty much perfect; it sounds really good when you play it with the song. 

Lauren

CHORDS USED:

B- (XX442X)
F#-(XXX442)
G#-(XXX664)
Em-(XXX220)

For the verse and chorus, where you see the /, that doesn’t mean slide, it means change chords really quickly. If you don’t want to do it, you don’t have to, that’s just the way I play it.

VERSE:

F#/G#/F#   B
    You come around every now and then…

F#/Em Em
Why else would you come here

Em
Scumbag on a mission

CHORUS:

F#/G#	G#				     F#	         B
Never thought I'd see the likes of you around this place

F#/G# G#
What's the special occasion

F#
Did you run out of friends


I think the solo is 100% correct, but I could be wrong. Adjust the amount each chord thingy is played if you want.


SOLO:

E----------------------------------------------2-2----
B--------4-4-2-4-2-4-2-4-0-0---4-4-2-4-2-4-2-4-4-4----
G--------4-4-4-4-4-4-4-4-4-4---4-4-4-4-4-4-4-4--------
D-----------------------------------------------------
A-----------------------------------------------------
E-----------------------------------------------------

E------------------------------------------------------
B--------0-0-0-0-0-0-0-0-0-0-0-0-0-0-0-0---------------
G--------4-4-4-4-3-3-3-3-1-1-1-1-3-3-3-3---------------
D------------------------------------------------------
A------------------------------------------------------
E------------------------------------------------------

E--------------------------------
B-----0-0-0-0-0-0-0-0-0-0-0-0----
G-----4-4-4-4-3-3-3-3-1-1-1-1----
D------------------------------4-
A--------------------------------
E--------------------------------

VERSE:
You come around every now and then,
Your clothes are different but you're still the same
Why else would you come here
Scumbag on a mission

Your telling me that it's been a while
*** eating grin and a brand new lie
Somebody let you come here
Scumbag with permission

CHORUS:
Never thought I'd see the likes of you around this place
What's the special occasion
Did you run out of friends

VERSE:
Here you are coming round again
Acting so different but you still pretend
You got a reason to come here
Scumbag with ambition

And now your telling me that things have changed
And you'll be leaving in a couple a days
You're going to change the world someday
Scumbag with a vision

CHORUS:
It must be nice to know you got it all figured out
But from where I'm sitting
It's the same thing again and again

SOLO:
Repeat 2X

CHORUS
You never stop to think before you open up your mouth
Cause every time you do
It's the same thing again and again

END ON F#





Comments


Popular Green Day tabs & chords
21st Century Breakdown 2 Bass Tabs
Desensitized Bass Tabs
Jar Bass Tabs
Eat Jesus Nowhere Chords
Favorite Son 2 Chords
I Was There  Chords
Minority Correct Tabs
Reject 2 Tabs
Rest  Tabs
Uptight  2 Tabs


Song lyrics



↑ Back to top | Tablatures and chords are parodies/interpretations of the original songs. You may use it for private study, scholarship, research or language learning purposes only
© 2014 AZChords.com Contact us | Privacy policy | DMCA | Add/correct tabs | Request tabs | Top 50 tabs